Log in

One click and you are in

Login with Facebook Login with Google

Why sign up and log in

Guitar Tabs Explorer
Sarah Blasko chords for Here ukulele

Guitar chords

Tuning: G C E A (G C E A)

Difficulty: Intermediate

Album: I Awake (2012)
Tuning: A#4 A#3 D4 A4

The following keeps on playing for the majority of the song:

 A|-3-----1-----0-----1-----3------4-------3-------1------:||
 D|----0-----0-----0-----0------4------4------4-------3---:||
A#|--0-----0-----0-----0-----5-------5------5-------4-----:||
A#|-------------------------------------------------------:||

                    (x 3)
 A|-3--------1-------0-------1------|-1-------|-0---------:||
 D|------3--------3-------3------3--|------2--|------0----:||
A#|---3--------3-------3------3-----|---2-----|---2-------:||
A#|---------------------------------|---------|-----------:||

2:40 - ONLY violins are played
3:20 (play tab above again)
4:10 - not 100% sure what is played here

This is played at the very end:

 A|----1----------------:||
 D|---0-----------------:||
A#|--0------------------:||
A#|-0-------------------:||

ⓘ Guitar chords for 'Here Ukulele' by Sarah Blasko, a female pop artist from Sydney, Australia. Sarah Blasko was born in 1976.

Almost there ...

Sign in to get your own page with links to favourite songs and more. You are just one click away...

Login with Facebook Login with Google