GuitarTabsExplorer icon
GuitarTabsExplorer icon

Log in

Songbook

  • Log in to add and see bookmarks

Last visited songs

    No songs visited yet...

Antukin by Rico Blanco

Bass tabs

Tuning: Standard (E A D G)


Verse 1:

G|---------------------------------------------------------------------------|
D|---------------------------------------------------------------------------|
A|3-3--3-5-5--5--------------------------------------------------------------|
E|--------------5-5--3--5-5-3-3-5-5-3-3----------------------------*---------|

G|---------------------------------------------------------------------------|
D|---------------------------------------------------------------------------|
A|3-3--3-5-5--5--------------------------------------------------------------|
E|--------------5-5--3--5-5-3-3-5-5-3-3----------------------------*---------|

G|---------------------------------------------------------------------------|
D|---------------------------------------------------------------------------|
A|3-3--3-5-5--5--------------------------------------------------------------|
E|--------------5-5--3--5-5-3-3-5-5-3-3----------------------------*---------|

G|---------------------------------------------------------------------------|
D|---------------------------------------------------------------------------|
A|-------8\5-5-5-5-----------------------------------------------------------|
E|1-1-1/---------------------------------------------------------------------|

G|---------------------------------------------------------------------------|
D|---------------------------------------------------------------------------|
A|3-3--3-5-5--5--------------------------------------------------------------|
E|--------------5-5--3--5-5-3-3-5-5-3-3----------------------------*---------|

G|---------------------------------------------------------------------------|
D|---------------------------------------------------------------------------|
A|3-3--3-5-5--5--------------------------------------------------------------|
E|--------------5-5--3--5-5-3-3-5-5-3-3----------------------------*---------|

G|---------------------------------------------------------------------------|
D|---------------------------------------------------------------------------|
A|3-3--3-5-5--5--------------------------------------------------------------|
E|--------------5-5--3--5-5-3-3-5-5-3-3----------------------------*---------|

G|---------------------------------------------------------------------------|
D|---------------------------------------------------------------------------|
A|-------8\5-5-5-5-5-5-5-5~--------------------------------------------------|
E|1-1-1/---------------------------------------------------------------------|


Chorus:

G|---------------------------------------------------------------------------|
D|---------------------------------------------------------------------------|
A|3-3-3-3---------5-5-5-5-5-5-5-5--------------------------------------------|
E|--------3-3-3-3------------------------------------------------------------|

G|---------------------------------------------------------------------------|
D|---------------------------------------------------------------------------|
A|3-3-3-3---------5-5-5-5-5-5-5-5--------------------------------------------|
E|--------3-3-3-3------------------------------------------------------------|

G|---------------------------------------------------------------------------|
D|---------------------------------------------------------------------------|
A|3-3-3-3---------5-5-5-5-5-5-5-5--------------------------------------------|
E|--------3-3-3-3------------------------------------------------------------|

G|---------------------------------------------------------------------------|
D|---------------------------------------------------------------------------|
A|-------8\5-5-5-5-----------------------------------------------------------|
E|1-1-1/---------------------------------------------------------------------|

G|---------------------------------------------------------------------------|
D|---------------------------------------------------------------------------|
A|3-3-3-3---------5-5-5-5-5-5-5-5--------------------------------------------|
E|--------3-3-3-3------------------------------------------------------------|

G|---------------------------------------------------------------------------|
D|---------------------------------------------------------------------------|
A|3-3-3-3---------5-5-5-5-5-5-5-5--------------------------------------------|
E|--------3-3-3-3------------------------------------------------------------|

G|---------------------------------------------------------------------------|
D|---------------------------------------------------------------------------|
A|3-3-3-3---------5-5-5-5-5-5-5-5--------------------------------------------|
E|--------3-3-3-3------------------------------------------------------------|

G|---------------------------------------------------------------------------|
D|---------------------------------------------------------------------------|
A|-------8\5-5-5-5-5-5-5-5~--------------------------------------------------|
E|1-1-1/---------------------------------------------------------------------|

Verse 2:

G|---------------------------------------------------------------------------|
D|---------------------------------------------------------------------------|
A|3-3--3-5-5--5--------------------------------------------------------------|
E|--------------5-5--3--5-5-3-3-5-5-3-3----------------------------*---------|

G|---------------------------------------------------------------------------|
D|---------------------------------------------------------------------------|
A|3-3--3-5-5--5--------------------------------------------------------------|
E|--------------5-5--3--5-5-3-3-5-5-3-3----------------------------*---------|

G|---------------------------------------------------------------------------|
D|---------------------------------------------------------------------------|
A|3-3--3-5-5--5--------------------------------------------------------------|
E|--------------5-5--3--5-5-3-3-5-5-3-3----------------------------*---------|

G|---------------------------------------------------------------------------|
D|---------------------------------------------------------------------------|
A|-------8\5-5-5-5-----------------------------------------------------------|
E|1-1-1/---------------------------------------------------------------------|

G|---------------------------------------------------------------------------|
D|---------------------------------------------------------------------------|
A|3-3--3-5-5--5--------------------------------------------------------------|
E|--------------5-5--3--5-5-3-3-5-5-3-3----------------------------*---------|

G|---------------------------------------------------------------------------|
D|---------------------------------------------------------------------------|
A|3-3--3-5-5--5--------------------------------------------------------------|
E|--------------5-5--3--5-5-3-3-5-5-3-3----------------------------*---------|

G|---------------------------------------------------------------------------|
D|---------------------------------------------------------------------------|
A|3-3--3-5-5--5--------------------------------------------------------------|
E|--------------5-5--3--5-5-3-3-5-5-3-3----------------------------*---------|

G|---------------------------------------------------------------------------|
D|---------------------------------------------------------------------------|
A|-------8\5-5-5-5-5-5-5-5~--------------------------------------------------|
E|1-1-1/---------------------------------------------------------------------|


Chorus:

G|---------------------------------------------------------------------------|
D|---------------------------------------------------------------------------|
A|3-3-3-3---------5-5-5-5-5-5-5-5--------------------------------------------|
E|--------3-3-3-3------------------------------------------------------------|

G|---------------------------------------------------------------------------|
D|---------------------------------------------------------------------------|
A|3-3-3-3---------5-5-5-5-5-5-5-5--------------------------------------------|
E|--------3-3-3-3------------------------------------------------------------|

G|---------------------------------------------------------------------------|
D|---------------------------------------------------------------------------|
A|3-3-3-3---------5-5-5-5-5-5-5-5--------------------------------------------|
E|--------3-3-3-3------------------------------------------------------------|

G|---------------------------------------------------------------------------|
D|---------------------------------------------------------------------------|
A|-------8\5-5-5-5-----------------------------------------------------------|
E|1-1-1/---------------------------------------------------------------------|

G|---------------------------------------------------------------------------|
D|---------------------------------------------------------------------------|
A|3-3-3-3---------5-5-5-5-5-5-5-5--------------------------------------------|
E|--------3-3-3-3------------------------------------------------------------|

G|---------------------------------------------------------------------------|
D|---------------------------------------------------------------------------|
A|3-3-3-3---------5-5-5-5-5-5-5-5--------------------------------------------|
E|--------3-3-3-3------------------------------------------------------------|

G|---------------------------------------------------------------------------|
D|---------------------------------------------------------------------------|
A|3-3-3-3---------5-5-5-5-5-5-5-5--------------------------------------------|
E|--------3-3-3-3------------------------------------------------------------|

G|---------------------------------------------------------------------------|
D|---------------------------------------------------------------------------|
A|-------8\5-5-5-5-5-5-5-5~--------------------------------------------------|
E|1-1-1/---------------------------------------------------------------------|


Bridge:

G|---------------------------------------------------------------------------|
D|---------------------------------------------------------------------------|
A|----------------2-2-2-2-2-2-2-2-3-3-3-3-3-3-3-3-5-5-5-5-5-5-5-5------------|
E|5-5-5-5-5-5-5-5------------------------------------------------------------|

G|---------------------------------------------------------------------------|
D|---------------------------------------------------------------------------|
A|----------------2-2-2-2-2-2-2-2--------------------------------------------|
E|5-5-5-5-5-5-5-5-----------------1-1-1-1-1-1-1-1-1-1-1-1-1-1-1-1------------|


Solo:

G|---------------------------------------------------------------------------|
D|---------------------------------------------------------------------------|
A|3-3--3-5-5--5--------------------------------------------------------------|
E|--------------5-5--3--5-5-3-3-5-5-3-3----------------------------*---------|

G|---------------------------------------------------------------------------|
D|---------------------------------------------------------------------------|
A|3-3--3-5-5--5--------------------------------------------------------------|
E|--------------5-5--3--5-5-3-3-5-5-3-3----------------------------*---------|

G|---------------------------------------------------------------------------|
D|---------------------------------------------------------------------------|
A|3-3--3-5-5--5--------------------------------------------------------------|
E|--------------5-5--3--5-5-3-3-5-5-3-3----------------------------*---------|

G|---------------------------------------------------------------------------|
D|---------------------------------------------------------------------------|
A|-------8\5-5-5-5-5-5-5-5---------------------------------------------------|
E|1-1-1/---------------------------------------------------------------------|


Chorus:

G|---------------------------------------------------------------------------|
D|---------------------------------------------------------------------------|
A|3-3-3-3---------5-5-5-5-5-5-5-5--------------------------------------------|
E|--------3-3-3-3------------------------------------------------------------|

G|---------------------------------------------------------------------------|
D|---------------------------------------------------------------------------|
A|3-3-3-3---------5-5-5-5-5-5-5-5--------------------------------------------|
E|--------3-3-3-3------------------------------------------------------------|

G|---------------------------------------------------------------------------|
D|---------------------------------------------------------------------------|
A|3-3-3-3---------5-5-5-5-5-5-5-5--------------------------------------------|
E|--------3-3-3-3------------------------------------------------------------|

G|---------------------------------------------------------------------------|
D|---------------------------------------------------------------------------|
A|-------8\5-5-5-5-----------------------------------------------------------|
E|1-1-1/---------------------------------------------------------------------|

G|---------------------------------------------------------------------------|
D|---------------------------------------------------------------------------|
A|3-3-3-3---------5-5-5-5-5-5-5-5--------------------------------------------|
E|--------3-3-3-3------------------------------------------------------------|

G|---------------------------------------------------------------------------|
D|---------------------------------------------------------------------------|
A|3-3-3-3---------5-5-5-5-5-5-5-5--------------------------------------------|
E|--------3-3-3-3------------------------------------------------------------|

G|---------------------------------------------------------------------------|
D|---------------------------------------------------------------------------|
A|3-3-3-3---------5-5-5-5-5-5-5-5--------------------------------------------|
E|--------3-3-3-3------------------------------------------------------------|

G|---------------------------------------------------------------------------|
D|---------------------------------------------------------------------------|
A|-------8\5-5-5-5-5-5-5-5~--------------------------------------------------|
E|1-1-1/---------------------------------------------------------------------|


Outro:

G|---------------------------------------------------------------------------|
D|---------------------------------------------------------------------------|
A|3-3--3-5-5--5--------------------------------------------------------------|
E|--------------5-5--3--5-5-3-3-5-5-3-3----------------------------*---------|

G|---------------------------------------------------------------------------|
D|---------------------------------------------------------------------------|
A|3-3--3-5-5--5--------------------------------------------------------------|
E|--------------5-5--3--5-5-3-3-5-5-3-3----------------------------*---------|

G|---------------------------------------------------------------------------|
D|---------------------------------------------------------------------------|
A|3-3--3-5-5--5--------------------------------------------------------------|
E|--------------5-5--3--5-5-3-3-5-5-3-3----------------------------*---------|

G|---------------------------------------------------------------------------|
D|---------------------------------------------------------------------------|
A|3--5-----3~----------------------------------------------------------------|
E|------5----------------------------------------------------------*---------|


************************************

| * Natural harmonic
| \ Slide down
| / Slide up
| ~ Vibrato

************************************

[ Privacy | About us ]

Welcome to the guitar community

Why join and log in?
- Get songbook with favourite songs
- Get custom made front page
- Submit chords and tabs
- Submit guitar-cover videos
- Get a lot of thumbs up for your work

Songbook

Last visited songs

Site
Home
Search
Community
Submit chords
Submit video

Video

No video for this page. Check out how you can submit guitar-cover videos here

Search tabs and chords

Browse by artist

A B C D E F G H I J K L M N O P Q R S T U V W X Y Z #


Menu

Search

Video

Bookmark

Login