Guitar Tabs Explorer
Blancmange bass tabs for I want more

I Want More bass tab


Be the first to rate


Bassm99Author: Bassm99

I Want More bass tab by Blancmange

`I Want More` from the album `Semi Detached` (2015). Written by Karoli/Schmidt/Czukay/Liebezeit/Peter Gilmour.

Bass tabs

Print
  • Tuning: Standard tuning
  • Difficulty: Novice

Tabbed by: bassm99
E-mail: alanmatthews1966@yahoo.co.uk

Tuning: E, A, D, G

Bass Starts: 0:02

Intro: (Play 3 Times)

G|----9---9---9---9-----7---7---7---7-----7---7---7---7-----9---9---9---9---|
D|--------------------------------------------------------------------------|
A|--7---7---7---7-----5---5---5---5-----5---5---5---5-----7---7---7---7-----|
E|--------------------------------------------------------------------------|

Verse:

G|--------------------------------------------------------------------------|
D|--------------------------------------------------------------------------|
A|--7-(x1)---5-0-7-(x15)----------------------------------------------------|
E|--------------------------------------------------------------------------|

Repeat Intro: (Play Twice)

Bridge: (* Sustain E)

G|--------------------------------------------------------------------------|
D|--------------------------------------------------------------------------|
A|--7-(x1)---5-0-7-(x7)---5-0-7*-(x4)---------------------------------------|
E|--------------------------------------------------------------------------|

Repeat Verse:

Repeat Intro: (Play 6 Times)

End: (Fades Out)

G|--------------------------------------------------------------------------|
D|--------------------------------------------------------------------------|
A|--7-(x1)---5-0-7-(x23)----------------------------------------------------|
E|--------------------------------------------------------------------------|

Comment this song and these bass tabs

Do you have corrections, comments on the bass tabs, thoughts about the song or a message to the author? Write them below.