Log in

One click and you are in

Login with Facebook Login with Google

Why sign up and log in

Guitar Tabs Explorer
Blakfish bass tabs for If the good lord had intended us to walk he wouldnt have invented roller-skates

If The Good Lord Had Intended Us To Walk He Wouldn't Have Invented Roller-skates bass tab - Blakfish

Blakfish bass tabs for If the good lord had intended us to walk he wouldnt have invented roller-skates

Bass tabs

If The Good Lord Had Intended Us To Walk He Wouldn't Have Invented Roller-Skates - Blakfish
------------------------------------------------------------------------------------------------

 Tabbed by:dvanwyk

 Tuning:Drop D
 Intro
G|---------------|
D|---------------|
A|6-6~-----------|
D|---------------|

 x2
G|----------------------------------|
D|-----------------------------3-5--|
A|66-66-33-33-1-1--66---------------|
D|--------------------55-55-55------|

 Verse
G|-------------------------10------------------------------------10-----------------|
D|----------------------------8h10p8--------------------------------8h10p8----------|
A|6--3-3----------6--8--10--------------6--3-3----------6--8--10-----------8h10-----|
D|-------3-3h5-5-------------------------------3-3h5-5--------------------------12--|

G|-------------------------10-----------|
D|----------------------------8h10p8----|
A|6--3-3----------6--8--10--------------|
D|-------3-3h5-5------------------------|

G|---------------|
D|---------------|
A|---6--8~-------|
D|8--------------|

 Pause

 x3 (0.35)
G|----7------3------------|
D|--8------5------3-5-----|
A|6------3----------------|
D|--------------5---------|

 x2
G|----------------------|
D|----------------------|
A|666--333--------------|
D|----------555---------|

 x1
G|----7------3------------|
D|--8------5------3-5-----|
A|6------3----------------|
D|--------------5---------|

 x1
G|----------------------|
D|----------------------|
A|666--333--------------|
D|----------555---------|

 x2
G|--------------7/8-7-------------------|
D|----------555------------------555----|
A|666--888-------------666--888---------|
D|--------------------------------------|

G|------------------------------------------|
D|------------------------------------------|
A|------------------------------------------|
D|66-66-66-66-88-88-1010-1010-55-55-55-55---|

G|------------------------------------------------------------|
D|----------------------------------------/55555555555555555--|
A|------------------------------------------------------------|
D|66-66-66-66-88-88-1010-1010-55-55-55-55---------------------|

G|----------------------|
D|----------------------|
A|----------------------|
D|66-66-66-66-66-66-----|

 Pause

 x2
G|----------------------------------|
D|-----------------------------3-5--|
A|66-66-33-33-1-1--66---------------|
D|--------------------55-55-55------|


 x5
G|--------------------------|
D|--------------------------|
A|6~----6~----------5~------|
D|------------5~------------|

G|----------------------|
D|----------------------|
A|6/-------8-6/---------|
D|----------------------|

G|----------------------------------------------------|
D|----------------------------------------------------|
A|6-----6-----6-----6-6-----6-6-----6-6------6-6------|
D|--555---555---555-----555-----555-----555-----------|


G|------------------------------------------|
D|------------------------------------------|
A|------------------------------------------|
D|66-66-66-66-88-88-1010-1010-55-55-55-55---|

G|------------------------------------------------------------|
D|----------------------------------------/55555555555555555--|
A|------------------------------------------------------------|
D|66-66-66-66-88-88-1010-1010-55-55-55-55---------------------|

G|----------------------|
D|----------------------|
A|----------------------|
D|66-66-66-66-66-66-----|

x2
G|----------------------------------|
D|-----------------------------3-5--|
A|66-66-33-33-1-1--66---------------|
D|--------------------55-55-55------|


 Verse


G|----7------3------------|
D|--8------5------3-5-----|
A|6------3----------------|

Almost there ...

Sign in to get your own page with links to favourite songs and more. You are just one click away...

Login with Facebook Login with Google