Log in

One click and you are in

Login with Facebook Login with Google

Why sign up and log in

Guitar Tabs Explorer
Blakfish bass tabs for 9th base

Bass tabs

-------------------------------------------------------------------------------
		 9th Base - Blakfish
-------------------------------------------------------------------------------

 Tabbed by:dvanwyk

 Tuning:Drop D

 Intro (0.06)
G|------------------------------------------------------------|
D|------------------------------------------------------------|
A|---------------------------------------------------7-7-7----|
D|7-777-777-7777-7-777-777--7-777-777-7777-7-777-777----------|

G|------------------------------------------------------------|
D|------------------------------------------------------------|
A|6-666-666-6666-6-666-666--6-666-666-6666-6-666-666-7-7-7----|
D|------------------------------------------------------------|

G|------------------------------------------------------|
D|------------------------------------------------------|
A|------------------------------------------------------|
D|7-777-777-7777-7-777-777--7-777-777-7777-7-777-777----|


 Verse x4
G|----------------------------|
D|----------------------------|
A|7-7-7--77-7-7--4-4-4-6-6----|
D|----------------------------|

 x2
G|---------------------------------------------|
D|---------------------------------------------|
A|7-7-7-7-7-7-4-4-4-6-6------------------------|
D|----------------------6-6-6-6-6-66-4-4-4-4---|

 Verse x2

 x3
G|-----------------------------|
D|-----------------------------|
A|-----------1-1-11-1-3333-----|
D|3-5-5-55-5-------------------|

 x1
G|-------------------|
D|-------------------|
A|-----------1-1-11--|
D|3-5-5-55-5---------|

 Pause

 x2 (1.27)
G|----------------------------------|
D|----------------------------------|
A|8-8-8--5-5--7-7-7-----------------|
D|------------------7-7-7--5-5------|

 x2
G|------------------------|
D|------------------------|
A|88--55--77--------------|
D|------------77--55------|

G|---------------------------------------------|
D|---------------------------------------------|
A|8-88-8-5-55--7-77--8-88-5-55--7-77-----------|
D|-----------------------------------7-7-7-----|

G|--------------------------------------|
D|--------------------------------------|
A|8-88-8-5-55--7-77--8-88-5-55--7-77----|
D|--------------------------------------|

G|--------------------------------------------------------------|
D|--------------------------------------------------------------|
A|--------------------------------------------------------------|
D|7-7-7-7-7-7-7-7----7-7-7-7----7-7-7-7----7-7-7-7----7-7-7-7---|


http://www.myspace.com/blakfish

Almost there ...

Sign in to get your own page with links to favourite songs and more. You are just one click away...

Login with Facebook Login with Google