Log in

One click and you are in

Login with Facebook Login with Google

Why sign up and log in

Guitar Tabs Explorer
Blackpink guitar tabs for How you like that

Guitar tabs with lyrics

Tuning: Standard (E A D G B E)


Intro:
   A chord diagramB minorBm      A chord diagramC majorC       A chord diagramB minorBm      A chord diagramC majorC      A chord diagramB minorBm       A chord diagramC majorC       A chord diagramB minorBm      A chord diagramC majorC
e|-----------------------------------------------------------------|
B|-----------------------------------------------------------------|
G|-----------------------------------------------------------------|
D|-----4-------5---4-------2-----------4-------5---4---4---2---2---|
A|-2---2---3---3-------5-------3---2---2---3---3-------5-------3---|
E|-----------------------------------------------------------------|
   A chord diagramB minorBm
e|-----------------------------------------------------------------|
B|-3---------------------------------------------------------------|
G|-4---------------------------------------------------------------|
D|-4---------------------------------------------------------------|
A|-2---------------------------------------------------------------|
E|-----------------------------------------------------------------|
                                                             보란 듯


Verse:
   A chord diagramB minorBm                              A chord diagramF# minorF#m
e|-----------------------------------------------------------------|
B|-------------3---------------3-----------------------------------|
G|---------4---------------4-------------------2---------------2---|
D|-----4---------------4-------------------4---------------4-------|
A|-2---------------2-------------------4---------------4-----------|
E|---------------------------------2---------------2---------------|
   이                         무너졌어                바닥을

   A chord diagramD MajorD                               A chord diagramG MajorG
e|-------------2---------------2-----------------------------------|
B|---------3---------------3-------------------0---------------0---|
G|-----2---------------2-------------------0---------------0-------|
D|-0---------------0-------------------0---------------0-----------|
A|-----------------------------------------------------------------|
E|---------------------------------3---------------3---------------|
   뚫고 저                     지하까지               옷 끝자

   A chord diagramB minorBm                              A chord diagramF# minorF#m
e|-----------------------------------------------------------------|
B|-------------3---------------3-----------------------------------|
G|---------4---------------4-------------------2---------------2---|
D|-----4---------------4-------------------4---------------4-------|
A|-2---------------2-------------------4---------------4-----------|
E|---------------------------------2---------------2---------------|
   락                         잡겠다고               저 높이

   A chord diagramD MajorD                               A chord diagramG MajorG
e|-------------2---------------2-----------------------------------|
B|---------3---------------3-------------------0---------------0---|
G|-----2---------------2-------------------0---------------0-------|
D|-0---------------0-------------------0---------------0-----------|
A|-----------------------------------------------------------------|
E|---------------------------------3---------------3---------------|
   두 손을                     뻗어봐도              다시

   A chord diagramB minorBm                              A chord diagramF# minorF#m
e|-----------------------------------------------------------------|
B|-------------3---------------3-----------------------------------|
G|---------4---------------4-------------------2---------------2---|
D|-----4---------------4-------------------4---------------4-------|
A|-2---------------2-------------------4---------------4-----------|
E|---------------------------------2---------------2---------------|
   캄캄한 이곳에                     light up the sky             네

   A chord diagramD MajorD                               A chord diagramG MajorG
e|-------------2---------------2-----------------------------------|
B|---------3---------------3-------------------0---------------0---|
G|-----2---------------2-------------------0---------------0-------|
D|-0---------------0-------------------0---------------0-----------|
A|-----------------------------------------------------------------|
E|---------------------------------3---------------3---------------|
   두 눈을 보며 I’ll                 kiss you goodbye

  A chord diagramB minorBm                              A chord diagramF# minorF#m
e|-----------------------------------------------------------------|
B|-------------3---------------3-----------------------------------|
G|---------4---------------4-------------------2---------------2---|
D|-----4---------------4-------------------4---------------4-------|
A|-2---------------2-------------------4---------------4-----------|
E|---------------------------------2---------------2---------------|
   실컷 비웃어라                     꼴좋으니까                    이제

   A chord diagramD MajorD
e|-------------2---------------2-----------------------------------|
B|---------3---------------3---------------------------------------|
G|-----2---------------2-------------------------------------------|
D|-0---------------0-----------------------------------------------|
A|-----------------------------------------------------------------|
E|-----------------------------------------------------------------|
   너희 하나 둘 셋                                   Ha how you like


Chorus:
   A chord diagramB minorBm
e|-----------------------------------------------------------------|
B|-----------------------------------------------------------------|
G|-4-------4-------4-------5-------5-------5-------4---------------|
D|-4-----------4-----------------------4---------------------------|
A|-2---------------------------------------------------------------|
E|-2---------------------------------------------------------------|
   that?                                           You gon’ like

   A chord diagramB minorBm
e|-----------------------------------------------------------------|
B|-----------------------------------------------------------------|
G|-4-------4-------4-------5-------5-------5-------4---------------|
D|-4-----------4-----------------------4---------------------------|
A|-2---------------------------------------------------------------|
E|-2---------------------------------------------------------------|
   that that that that that                            How you like

   A chord diagramE minorEm                              A chord diagramF# minorF#m
e|-----------------------------------------------------------------|
B|-----------------------------------------------------------------|
G|-----------------------------------------------------------------|
D|-----------------------------------------------------------------|
A|-2-------------------------------3-------3-------2---------------|
E|-0-------2-/-7---7-------8-----------2---------------------------|
   that?                                               How you like


   A chord diagramE minorEm                              A chord diagramF# minorF#m
e|-----------------------------------------------------------------|
B|-----------------------------------------------------------------|
G|-----------------------------------------------------------------|
D|-----------------------------------------------------------------|
A|-2-------------------------------3-------3-------2---------------|
E|-0-------2-/-7---7-------8-----------2---------------------------|
   that that that that that                                     Now


   A chord diagramB minorBm
e|-----------------------------------------------------------------|
B|-----------------------------------------------------------------|
G|-4-------4-------4---5-------------------5-------4---------------|
D|-4-----------4---------------------------------------------------|
A|-2---------------------------------------------------------------|
E|-2---------------------------------------------------------------|
   look at you now look at me       Look at you now look at me
   A chord diagramB minorBm
e|-----------------------------------------------------------------|
B|-----------------------------------------------------------------|
G|---------4-------4-------5-------5-------5-------4---------------|
D|-----2/4-----4-----------------------4---------------------------|
A|-----------------------------------------------------------------|
E|-----------------------------------------------------------------|
   Look at you now look at me      How you like that            Now

   A chord diagramE minorEm                              A chord diagramF# minorF#m
e|-----------------------------------------------------------------|
B|-----------------------------------------------------------------|
G|-----------------------------------------------------------------|
D|-----------------------------------------------------------------|
A|-2-------------------------------3-------3-------2---------------|
E|-0-------2-/-7---7-------8-----------2---------------------------|
   look at you now look at me       Look at you now look at me

   A chord diagramE minorEm                              A chord diagramF# minorF#m
e|-----------------------------------------------------------------|
B|-----------------------------------------------------------------|
G|-----------------------------------------------------------------|
D|-----------------------------------------------------------------|
A|-2-------------------------------3-------3-------2---------------|
E|-0-------2-/-7---7-------8-----------2---------------------------|
   Look at you now look at me      How you like that


   A chord diagramB minorBm
e|-----------------------------------------------------------------|
B|-----------------4-------4-h-5---7-------7-p-5--7----------------|
G|-4-------4-h-5---------------------------------------------------|
D|-4---------------------------------------------------------------|
A|-2---------------------------------------------------------------|
E|-2---------------------------------------------------------------|
  Your girl need it all and that’s a hundred  백 개 중에 백 내 몫을 원해


   A chord diagramC majorC                                   A chord diagramBB
e|-----------------------------------------------------------------|
B|-8---8---8-\-7---7-\-5---5-\-4---4-\-2---2-p-0--0----------------|
G|-----------------------------------------------------------------|
D|-----------------------------------------------------------------|
A|-----------------------------------------------------------------|
E|-----------------------------------------------------------------|
  Karma come and get some  딱하지만 어쩔 수 없잖아    What’s up, I’m right


   A chord diagramB minorBm
e|-----------------------------------------------------------------|
B|-----------------4-------4-h-5---7-------7-p-5--7----------------|
G|-4-------4-h-5---------------------------------------------------|
D|-4---------------------------------------------------------------|
A|-2---------------------------------------------------------------|
E|-2---------------------------------------------------------------|
   back  방아쇠를 cock back   Plain Jane get


   A chord diagramC majorC
e|-----------------------------------------------------------------|
B|-8---8---8-\-7---7-\-5---5-\-4-----------------------------------|
G|-----------------------------------------------------------------|
D|-----------------------------------------------------------------|
A|-----------------------------------------------------------------|
E|-----------------------------------------------------------------|
   hijacked  Don’t like me? Then tell me how you like that


Verse:
   A chord diagramB minorBm                              A chord diagramF# minorF#m
e|-----------------------------------------------------------------|
B|-------------3---------------3-----------------------------------|
G|---------4---------------4-------------------2---------------2---|
D|-----4---------------4-------------------4---------------4-------|
A|-2---------------2-------------------4---------------4-----------|
E|---------------------------------2---------------2---------------|
   더 캄캄한 이곳에                  shine like the stars

   A chord diagramD MajorD                               A chord diagramG MajorG
e|-------------2---------------2-----------------------------------|
B|---------3---------------3-------------------0---------------0---|
G|-----2---------------2-------------------0---------------0-------|
D|-0---------------0-------------------0---------------0-----------|
A|-----------------------------------------------------------------|
E|---------------------------------3---------------3---------------|
   그 미소를 띠며               I’ll kiss you goodbye

   A chord diagramB minorBm                              A chord diagramF# minorF#m
e|-----------------------------------------------------------------|
B|-------------3---------------3-----------------------------------|
G|---------4---------------4-------------------2---------------2---|
D|-----4---------------4-------------------4---------------4-------|
A|-2---------------2-------------------4---------------4-----------|
E|---------------------------------2---------------2---------------|
   실컷 비웃어라                     꼴좋으니까

   A chord diagramD MajorD
e|-------------2---------------2-----------------------------------|
B|---------3---------------3---------------------------------------|
G|-----2---------------2-------------------------------------------|
D|-0---------------0-----------------------------------------------|
A|-----------------------------------------------------------------|
E|-----------------------------------------------------------------|
   이제 너희 하나 둘 셋                                Ha how you like


Chorus:
   A chord diagramB minorBm
e|-----------------------------------------------------------------|
B|-----------------------------------------------------------------|
G|-4-------4-------4-------5-------5-------5-------4---------------|
D|-4-----------4-----------------------4---------------------------|
A|-2---------------------------------------------------------------|
E|-2---------------------------------------------------------------|
   that?                                           You gon’ like

   A chord diagramB minorBm
e|-----------------------------------------------------------------|
B|-----------------------------------------------------------------|
G|-4-------4-------4-------5-------5-------5-------4---------------|
D|-4-----------4-----------------------4---------------------------|
A|-2---------------------------------------------------------------|
E|-2---------------------------------------------------------------|
   that that that that that                            How you like

   A chord diagramE minorEm                              A chord diagramF# minorF#m
e|-----------------------------------------------------------------|
B|-----------------------------------------------------------------|
G|-----------------------------------------------------------------|
D|-----------------------------------------------------------------|
A|-2-------------------------------3-------3-------2---------------|
E|-0-------2-/-7---7-------8-----------2---------------------------|
   that?                                               How you like


   A chord diagramE minorEm                              A chord diagramF# minorF#m
e|-----------------------------------------------------------------|
B|-----------------------------------------------------------------|
G|-----------------------------------------------------------------|
D|-----------------------------------------------------------------|
A|-2-------------------------------3-------3-------2---------------|
E|-0-------2-/-7---7-------8-----------2---------------------------|
   that that that that that                                     Now


   A chord diagramB minorBm
e|-----------------------------------------------------------------|
B|-----------------------------------------------------------------|
G|-4-------4-------4---5-------------------5-------4---------------|
D|-4-----------4---------------------------------------------------|
A|-2---------------------------------------------------------------|
E|-2---------------------------------------------------------------|
   look at you now look at me       Look at you now look at me
   A chord diagramB minorBm
e|-----------------------------------------------------------------|
B|-----------------------------------------------------------------|
G|---------4-------4-------5-------5-------5-------4---------------|
D|-----2/4-----4-----------------------4---------------------------|
A|-----------------------------------------------------------------|
E|-----------------------------------------------------------------|
   Look at you now look at me      How you like that            Now

   A chord diagramE minorEm                              A chord diagramF# minorF#m
e|-----------------------------------------------------------------|
B|-----------------------------------------------------------------|
G|-----------------------------------------------------------------|
D|-----------------------------------------------------------------|
A|-2-------------------------------3-------3-------2---------------|
E|-0-------2-/-7---7-------8-----------2---------------------------|
   look at you now look at me       Look at you now look at me

   A chord diagramE minorEm                              A chord diagramF# minorF#m
e|-----------------------------------------------------------------|
B|-----------------------------------------------------------------|
G|-----------------------------------------------------------------|
D|-----------------------------------------------------------------|
A|-2-------------------------------3-------3-------2---------------|
E|-0-------2-/-7---7-------8-----------2---------------------------|
   Look at you now look at me      How you like that


  A chord diagramB minorBm                               A chord diagramE minorEm
e|-----------------------------------------------------------------|
B|-3---------------2---------------0---------------3---------------|
G|-4---------------4---------------0---------------0---------------|
D|-4---------------4---------------2---------------2---------------|
A|-2-------2-------2-------2---------------------------------------|
E|---------------------------------0-------0-------0-------0-------|
    날개 잃은 채로                   추락했던 날

   A chord diagramG MajorG                               A chord diagramF#F#
e|-----------------------------------------------------------------|
B|-3---------------2---------------2---------------0---------------|
G|-0---------------0---------------2---------------2---------------|
D|-0---------------0-----------------------------------------------|
A|-----------------------------------------------------------------|
E|-3-------3-------3-------3-------2-------2-------2-------2-------|
   어두운 나날 속에                  갇혀 있던 날

  A chord diagramB minorBm                               A chord diagramE minorEm
e|-----------------------------------------------------------------|
B|-3---------------2---------------0---------------3---------------|
G|-4---------------4---------------0---------------0---------------|
D|-4---------------4---------------2---------------2---------------|
A|-2-------2-------2-------2---------------------------------------|
E|---------------------------------0-------0-------0-------0-------|
    그때쯤에 넌 날                   끝내야 했어


   A chord diagramD MajorD                               A chord diagramC#C#              A chord diagramC majorC
e|-----------------------------------------------------------------|
B|-7-------------------------------6---------------5---------------|
G|-7-------------------------------6---------------5---------------|
D|-7-------------------------------6---------------5---------------|
A|-5-------------------------------4---------------3---------------|
E|-----------------------------------------------------------------|
   Look up in the sky        it’s a bird it’s a plane

   A chord diagramB minorBm                              A chord diagramC majorC
e|-----------------------------------------------------------------|
B|-----------------------------------------------------------------|
G|-4-----4-4-----4-------------------------------------------------|
D|-4-----4-4-----4-10------10----10--------------------------------|
A|-2-----2-2-----2-10------10----10--------9-----------------------|
E|-----------------8-------8-----8-8-----------8---7---------------|


   A chord diagramB minorBm                              A chord diagramBB
e|-----------------------------------------------------------------|
B|-----------------------------------------------------------------|
G|-4-----4-4-----4-------------------------------------------------|
D|-4-----4-4-----4-10------10------9-------9-----------------------|
A|-2-----2-2-----2-10------10------9-------9-----------------------|
E|-----------------8-------8-------7-------7-----------------------|
                                   Bring out your boss bish

   A chord diagramB minorBm                              A chord diagramC majorC
e|-----------------------------------------------------------------|
B|-----------------------------------------------------------------|
G|-4-----4-4-----4-------------------------------------------------|
D|-4-----4-4-----4-10------10----10--------------------------------|
A|-2-----2-2-----2-10------10----10--------------------------------|
E|-----------------8-------8-----8-8-------7---7-------------------|
                                                   BLACKPINK!

   A chord diagramB minorBm                              A chord diagramC majorC
e|-----------------------------------------------------------------|
B|-----------------------------------------------------------------|
G|-4-----4-4-----4-------------------------------------------------|
D|-4-----4-4-----4-10------10----10--------------------------------|
A|-2-----2-2-----2-10------10----10--------9-----------------------|
E|-----------------8-------8-----8-8-----------8---7---------------|
                                                  How you like that

   A chord diagramB minorBm                              A chord diagramBB
e|-----------------------------------------------------------------|
B|-----------------------------------------------------------------|
G|-4-----4-4-----4-------------------------------------------------|
D|-4-----4-4-----4-10------10------9-----9-9-----9-9---------------|
A|-2-----2-2-----2-10------10------9-----9-9-----9-9---------------|
E|-----------------8-------8-------7-----7-7-----7-7---------------|
                                                 You gon’ like that

   A chord diagramB minorBm                              A chord diagramC majorC
e|-----------------------------------------------------------------|
B|-----------------------------------------------------------------|
G|-4-----4-4-----4-------------------------------------------------|
D|-4-----4-4-----4-10------10----10--------------------------------|
A|-2-----2-2-----2-10------10----10--------7-----------------------|
E|-----------------8-------8-----8-8-----------8---7---------------|
                                                   How you like that

   A chord diagramB minorBm                              A chord diagramBB
e|-----------------------------------------------------------------|
B|-----------------------------------------------------------------|
G|-4-----4-4-----4-------------------------------------------------|
D|-4-----4-4-----4-10------10----10--------------------------------|
A|-2-----2-2-----2-10------10----10--------------------------------|
E|-----------------8-------8-----8-8-------7---7-------------------|


************************************

| /  Slide up
| h  Hammer-on
| p  Pull-off
| \  Slide down

************************************

Other versions of How You Like That

How you like thatChords

↓ Add and view comments below ↓

What do you think about this song and these tabs?

Add your comments, questions, rant or a thumbs up below.

Almost there ...

Sign in to get your own page with links to favourite songs and more. You are just one click away...

Login with Facebook Login with Google