Log in

One click and you are in

Login with Facebook Login with Google

Why sign up and log in

Guitar Tabs Explorer
The Blackout bass tabs for Its high tide baby

Bass tabs

--------------------------------------------------------------------------
			   Its High Tide Baby - The Blackout
--------------------------------------------------------------------------

Tabbed By :cutupangles
Tuning:D#G#C#F#

note:listen for timeing and yes the Tuning is right
and dont forget to rate and comment <3


Intro/Chorus
F#|------------------------------------------------------------------|
C#|------------------------------------------------------------------|
G#|------------33333333--77777777--55555555--------------------------|(x2)
D#|--33333333--------------------------------------------------------|


Verse
F#|------------------------------------------------------------------|
C#|------------------------------------------------------------------|
G#|------------33333333--77777777--55555555--------------------------|(x2)
D#|--33333333--------------------------------------------------------|

F#|-------------------------------------------------------------|
C#|------5------5---5-------5-----5------9-----9--------7-----7-|
G#|----5------5---5---5--33---3-3---3\77---7-7---7\55---5-5---5-|
D#|--33----33---------------------------------------------------|

F#|-----------------------------------------|
C#|-----5-----5------9-----9--------7-----7-|
G#|--33---3-3---3\77---7-7---7\55---5-5---5-|
D#|-----------------------------------------|

Chorus
F#|------------------------------------------------------------------|
C#|------------------------------------------------------------------|
G#|------------33333333--77777777--55555555--------------------------|(x2)
D#|--33333333--------------------------------------------------------|


Verse
F#|------------------------------------------------------------------|
C#|------------------------------------------------------------------|
G#|------------33333333--77777777--55555555--------------------------|(x2)
D#|--33333333--------------------------------------------------------|

F#|-------------------------------------------------------------|
C#|------5------5---5-------5-----5------9-----9--------7-----7-|
G#|----5------5---5---5--33---3-3---3\77---7-7---7\55---5-5---5-|
D#|--33----33---------------------------------------------------|

F#|-----------------------------------------|
C#|-----5-----5------9-----9--------7-----7-|
G#|--33---3-3---3\77---7-7---7\55---5-5---5-|
D#|-----------------------------------------|


Chorus
F#|------------------------------------------------------------------|
C#|------------------------------------------------------------------|
G#|------------33333333--77777777--55555555--------------------------|(x2)
D#|--33333333--------------------------------------------------------|


Bridge
F#|-------------------------------------------------------|
C#|-------------------------------------------------------|
G#|-------------------------------------------------------|
D#|---4\------4\------4\------4------4\------4\------4\---|


Outro
F#|------------------------------------------------------------------|
C#|------------------------------------------------------------------|
G#|---------------33333333-----77777777--55555555--------------------|(x2)
D#|--33333333--------------------------------------------------------|

F#|------------------------------------------------------------------|
C#|------------------------------------------------------------------|
G#|------------33333333--77777777--55555555--------------------------|(x2)
D#|--33333333--------------------------------------------------------|

F#|------------------------------------------|
C#|------------------------------------------|
G#|------------------------------------------|
D#|---4~------4~------4~------4--------------|


| / slide up
| \ slide down
| h hammer-on
| p pull-off
| ~ vibrato
| + harmonic
| x Mute note
ⓘ Bass guitar tab for 'Its High Tide Baby' by The Blackout, artist. The Blackout was born in 2003.

Almost there ...

Sign in to get your own page with links to favourite songs and more. You are just one click away...

Login with Facebook Login with Google