Log in

One click and you are in

Login with Facebook Login with Google

Why sign up and log in

Guitar Tabs Explorer
The Blackout bass tabs for Children of the night

Children Of The Night bass tab by The Blackout

The Blackout bass tabs for Children of the night

Bass tabs

INTRO/VERSE (PART 1) X2

G|------------\      |G|-----------\
D|------------ \      |D|----------- \
A|------------ / X2  then |A|----------- / X2
D|-6--4-6-4-6-/      |D|-2--0-2-0-2/
VERSE (PART 2) X2

G|-------------------------------------|
D|-------------------------------------|
A|-------------------44444444-2222-----|
D|-66666666-22222222---------------4444|


CHORUS X1

G|----------------\      |G|--------------------------|
D|---------------- \      |D|--------------------------|
A|---------------- / X2  Then |A|--------------------------|
D|-6--4-6-4-6-666-/      |D|-2--0-2-0-2-222-2-0-2-0-2-|


INTRO/VERSE (PART 1)X2


VERSE (PART 2) X2

PAUSE THEN


BRIDGE 1 X4
(at the end of each "We are the children of the night, we are the children!")

G|-------|
D|-------|
A|-------|
D|-6-4-6-|

SECOND CHORUS X2

G|------------------\       |G|------------------\
D|------------------ \      |D|------------------ \
A|------------------ / X2  then |A|------------------ / X2
D|-2-2-2-2-2-2-2-0-2/


BRIDGE 2 X1

G|-------------------------------|
D|-------------------------------|
A|--------------------4---------2|
D|-6---------2-------------------|


FINAL CHORUS

G|------------------\       |G|------------------\
D|------------------ \      |D|------------------ \
A|------------------ / X2  then |A|------------------ / X2
D|-2-2-2-2-2-2-2-0-2/


OUTRO

G|-------------------------------------------|
D|-------------------------------------------|
A|--------------(11=eleven)------------------|
D|-66666664666--9--11------66666664666--4--1-|
ⓘ Bass guitar tab for 'Children Of The Night' by The Blackout, artist. The Blackout was born in 2003.

Almost there ...

Sign in to get your own page with links to favourite songs and more. You are just one click away...

Login with Facebook Login with Google