Log in

One click and you are in

Login with Facebook Login with Google

Why sign up and log in

Guitar Tabs Explorer
Blackfield bass tabs for Blackfield

Bass tabs with lyrics

Tuning: Standard tuning

-----------------------------------------------------------------------------
                     Artist - Blackfield
                     *********************
                      Song - Blackfield
                     *******************
                      Album - Blackfield
                     ********************
                     Tabbed By - Ayreon77
                     **********************
-----------------------------------------------------------------------------

Tuning = Standard
00:23

INTRO
******
G|----------------------------|--------------------------|
D|----------------------------|--------------------------|
A|--------------------------2-|--------------------------|
E|-1--1-1-1--1--1--1-1-1--1---|-5--5-5-5--5--5--5-5-5--5-|


G|----------------------------|----------------------------|
D|----------------------------|----------------------------|
A|--------------------------2-|----------------------------|
E|-1--1-1-1--1--1--1-1-1--1---|-5--5-5-5--5--5--5-5-5--5-3-|


---------------------------
00:47

VERSE 1
********
 Curling lips, fingertips I saw it all in the blackfield
G|----------------------------|----------------------------|
D|----------------------------|----------------------------|
A|--------------------------2-|----------------------------|
E|-1--1-1-1--1--1--1-1-1--1---|-5--5-5-5--5--5--5-5-5--5-3-|

 Splinter cracks, summer tracks We found them all in the blackfield
G|----------------------------|---------------------------|
D|----------------------------|-------------------------s-|
A|--------------------------2-|------------------------7\-|
E|-1--1-1-1--1--1--1-1-1--1---|-5--5-5-5--5--5--5-5-5-----|

 In the shade, whistle blades, singing fades In the blackfield
G|----------------------------|-----------------------|
D|----------------------------|-----------------------|
A|--------------------------3-|-----------------------|
E|-1--1-1-1--1--1--1-1-1--1---|-2--2-2-2--2--2--2-2-2-|

---------------------------
01:22

CHORUS
*******
She wants to stay and talk all day     So I remark when it gets dark
G|---------------------------|----------------------|-----------------------------|
D|---------------------------|----------------------|-----------------------------|
A|--s------------------------|----------------------|--s------------5-------------|
E|-2\7--7-7-7--7--7--7-7-7-0-|-2--2-2-2--2-2--2-2-2-|-2\7--7-7-7--7---3--3--3-3-3-|

All the pale things under the earth Will reverse
G|-------------|-----------|----------|---|
D|-------------|-----------|----------|---|
A|-5--5-5-5--5-|-5--5-5--5-|-5--5-5-5-|---|
E|-------------|-----------|----------|-3-|


---------------------------
01:54

BREAK
******
G|----------------------------|---------------------------|
D|----------------------------|-------------------------s-|
A|--------------------------2-|------------------------7\-|
E|-1--1-1-1--1--1--1-1-1--1---|-5--5-5-5--5--5--5-5-5-----|


---------------------------
02:06

VERSE 2
********
 River glass, cycle past, overcast I saw it all in the blackfield
G|----------------------------|----------------------------|
D|----------------------------|----------------------------|
A|--------------------------2-|----------------------------|
E|-1--1-1-1--1--1--1-1-1--1---|-5--5-5-5--5--5--5-5-5--5-3-|

 Copper sky, shadows rise, bridge of sighs We had it all in the blackfield
G|----------------------------|----------------------------|
D|----------------------------|----------------------------|
A|--------------------------2-|----------------------------|
E|-1--1-1-1--1--1--1-1-1--1---|-5--5-5-5--5--5--5-5-5--5-3-|

 Skin tracks, face facts, fade to black In the blackfield
G|----------------------------|-----------------------|
D|----------------------------|-----------------------|
A|--------------------------3-|-----------------------|
E|-1--1-1-1--1--1--1-1-1--1---|-2--2-2-2--2--2--2-2-2-|


---------------------------
02:40

CHORUS
*******
She wants to stay and talk all day     So I remark when it gets dark
G|---------------------------|----------------------|-----------------------------|
D|---------------------------|----------------------|-----------------------------|
A|--s------------------------|----------------------|--s------------5-------------|
E|-2\7--7-7-7--7--7--7-7-7-0-|-2--2-2-2--2-2--2-2-2-|-2\7--7-7-7--7---3--3--3-3-3-|

All the pale things under the earth Will reverse
G|-------------|-----------|----------|---|
D|-------------|-----------|----------|---|
A|-5--5-5-5--5-|-5--5-5--5-|-5--5-5-5-|---|
E|-------------|-----------|----------|-3-|


---------------------------
03:19
SYNTH
******
G|----------------------------|---------------------------|
D|----------------------------|-------------------------s-|
A|--------------------------2-|------------------------7\-|
E|-1--1-1-1--1--1--1-1-1--1---|-5--5-5-5--5--5--5-5-5-----|X4


---------------------------
04:06
GUITAR SOLO
************      Fade Out..........................
G|----------------------------|---------------------------|
D|----------------------------|-------------------------s-|
A|--------------------------2-|------------------------7\-|
E|-1--1-1-1--1--1--1-1-1--1---|-5--5-5-5--5--5--5-5-5-----|X5


ENJOY.........

Almost there ...

Sign in to get your own page with links to favourite songs and more. You are just one click away...

Login with Facebook Login with Google