Log in

One click and you are in

Login with Facebook Login with Google

Why sign up and log in

Guitar Tabs Explorer
Blackfield bass tabs for 1000 people

Bass tabs

  • Tuning: Standard tuning
  • Difficulty: Beginner
-------------------------------------------------------------------
           Artist - Blackfield
          *********************
           Song - 1000 People
          ********************
         Album - Blackfield II (2007)
        ******************************
           Tabbed By - Ayreon77
          **********************
-------------------------------------------------------------------

Tuning = Standard


INTRO
******
G|----------------------------------|------------------------------------|
D|-----------------------------5----|----------------------------------5-|
A|-3~~~~~-6~~~~~--------------------|-3~~~~~-3-6~~~~~--------------------|
E|---------------6~~~~~-3~~~~~----3-|------------------6~~~~~-3~~~~~-3---|


-------------------------
00:29

VERSE 1
********
G|------5-|-----------------------|------5-|-----------------------|
D|--------|-----------------------|--------|-----------------------|
A|-3--3---|-3-6~~~~---------------|-3--3---|-3-6~~~~---------------|
E|--------|---------6~~~~-3~~~~-3-|--------|---------6~~~~-3~~~~-3-|

-------------------------
00:59

CHORUS
*******
G|---------------|--------------------|----------------|----------------|
D|---------------|--------h-----------|-----------2~~~-|-----------2~~~-|
A|---------------|-2--2--0-2--2--2--2-|------2~~~------|------2~~~------|
E|-4---4---4---4-|--------------------|-2~~~-----------|-2~~~-----------|


-------------------------
01:28

BREAK
******
G|----------------------------------|
D|-----------------------------5--5-|
A|-3~~~~~-6~~~~~--------------------|
E|---------------6~~~~~-3~~~~~------|


-------------------------
01:43

VERSE 2
********
G|------5-|-----------------------|------5-|-----------------------|
D|--------|-----------------------|--------|-----------------------|
A|-3--3---|-3-6~~~~---------------|-3--3---|-3-6~~~~---------------|
E|--------|---------6~~~~-3~~~~-3-|--------|---------6~~~~-3~~~~-3-|


-------------------------
02:13

CHORUS
*******
G|---------------|--------------------|----------------|----------------|
D|---------------|--------h-----------|-----------2~~~-|-----------2~~~-|
A|---------------|-2--2--0-2--2--2--2-|------2~~~------|------2~~~------|
E|-4---4---4---4-|--------------------|-2~~~-----------|-2~~~-----------|


-------------------------
02:42

BRIDGE
*******
G|------------------------|--------------|--------------|------|
D|------------------------|--------------|--------------|-2--2-|
A|------------------------|--------------|--------------|------|
E|-2--2--2--2--2--2--2--2-|-1---1--1-1-1-|-0---0--0-0-0-|------|


-------------------------
02:57

CHORUS
*******
G|------------------------|------------------------|----------------------|
D|------------------------|------------------------|--------h-------------|
A|------------------------|------------------------|-2--2--0-2-2-2-2--2-2-|
E|-4--4--4--4--4--4--4--4-|-4--4--4--4--4--4--4--4-|----------------------|

03:12
G|----------------|----------------|----------------|----------------|
D|-----------2~~~-|-----------2~~~-|-----------2~~~-|-----------2~~~-|
A|------2~~~------|------2~~~------|------2~~~------|------2~~~------|
E|-2~~~-----------|-2~~~-----------|-2~~~-----------|-2~~~-----------|


-------------------------
03:41

OUTRO
******
G|----------------------|
D|----------------------|
A|-3~~~~~-6~~~~~--------|
E|---------------6~~~~~-|


ENJOY..........

Almost there ...

Sign in to get your own page with links to favourite songs and more. You are just one click away...

Login with Facebook Login with Google