Log in

One click and you are in

Login with Facebook Login with Google

Why sign up and log in

Guitar Tabs Explorer
Emma Blackery bass tabs for Sucks to be you

Bass tabs

Emma Blackery
Sucks To Be You
Sucks To Be You EP
2016

Intro:

G|--------------|
D|--------------|
A|--------------|
E|--4-4----4-4--|


Verse:

G|-------------------------------------------------------------------------------------------------|
D|-------------------------------------------------------------------------------------------------|
A|--6--6--6--6--6--6--6--6--6--6--6--6--6--6--6--3--3--3--3--3--3--3--3----------------------------|
E|-------------------------------------------------------------------------4--4--4--4--4--4--4--4--| x2


Pre-Chorus:

G|-----------------------------------------|
D|-----------------------------------------|
A|--1--1--1--1--1--1--1--1-----------------|
E|--------------------------4--4--4--4--4--|


Chorus:

G|-------------------------------------------------------------------|
D|-------------------------------------------------------------------|
A|--6-6-6-6-6-6-6-6-6-6-6-6-6-6-6-6-6-6-6-6-6-6-6-6-6-6-6-6-6-6-6-6--|
E|-------------------------------------------------------------------|

G|-------------------------------------------------------------------|
D|-------------------------------------------------------------------|
A|--3-3-3-3-3-3-3-3-3-3-3-3-3-3-3-3----------------------------------|
E|----------------------------------4-4-4-4-4-4-4-4-4-4-4-4-4-4-4-4--|

G|-------------------------------------------------------------------|
D|-------------------------------------------------------------------|
A|--6-6-6-6-6-6-6-6-6-6-6-6-6-6-6-6-6-6-6-6-6-6-6-6-5-5-5-5-5-5-5-5--|
E|-------------------------------------------------------------------|

G|----------------------------------------------|
D|----------------------------------------------|
A|--3-3-3-3-3-3-3-3-3-3-3-3-3-3-3-3-------------|
E|----------------------------------4-4----4-4--|

Interlude:

G|--------------------------------------------------|
D|--------------------------------------------------|
A|--6--6--6--6--6--6--6--6--6--6--6--6--6--6--6--6--|
E|--------------------------------------------------|


Verse:

G|----------------------------------------------------------------------------------------------------|
D|----------------------------------------------------------------------------------------------------|
A|--6--6--6--6--6--8--10--8--6--6--6--6--6--8--10--8--3--3--3--3--3--5--6--5--------------------------|
E|----------------------------------------------------------------------------4--4--4--4--4--3--1--3--|


Pre-Chorus:

G|-------------------------------------------|
D|-------------------------------------------|
A|--1--1--1--1--1--1--1--1-------------------|
E|--------------------------4--4--4--4--4/6--|


Chorus:

G|-------------------------------------------------------------------|
D|-------------------------------------------------------------------|
A|--6-6-6-6-6-6-6-6-6-6-6-6-6-6-6-6-6-6-6-6-6-6-6-6-6-6-6-6-6-6-6-6--|
E|-------------------------------------------------------------------|

G|-------------------------------------------------------------------|
D|-------------------------------------------------------------------|
A|--3-3-3-3-3-3-3-3-3-3-3-3-3-3-3-3----------------------------------|
E|----------------------------------4-4-4-4-4-4-4-4-4-4-4-4-4-4-4-4--|

G|-------------------------------------------------------------------|
D|-------------------------------------------------------------------|
A|--6-6-6-6-6-6-6-6-6-6-6-6-6-6-6-6-6-6-6-6-6-6-6-6-5-5-5-5-5-5-5-5--|
E|-------------------------------------------------------------------|

G|----------------------------------------------|
D|----------------------------------------------|
A|--3-3-3-3-3-3-3-3-3-3-3-3-3-3-3-3-------------|
E|----------------------------------4-4----4-4--|


Bridge:

G|--------------------------------------------------------------|  |---|
D|--------------------------------------------------------------|  |---|
A|--1-1-1-1-1-1-1-1-1-1-1-1-1-1-1-1-----------------------------| x3 |-6-|
E|----------------------------------4-4-4-4-4-4-4-4-4--3--1--3--|  |---|


Chorus:

G|---------------------------------------------------------------|
D|---------------------------------------------------------------|
A|--6-6-6-6-6-6-6-6-6-6-6-6-6-6-6-6-6-6-6-6-6-6-6-6-6--8--10--8--|
E|---------------------------------------------------------------|

G|-------------------------------------------------------------------|
D|-------------------------------------------------------------------|
A|--3-3-3-3-3-3-3-3-3-3-3-3-3-3-3-3----------------------------------|
E|----------------------------------4-4-4-4-4-4-4-4-4-4-4-4-4-4-4-4--|

G|-------------------------------------------------------------------|
D|-------------------------------------------------------------------|
A|--6-6-6-6-6-6-6-6-6-6-6-6-6-6-6-6-6-6-6-6-6-6-6-6-5-5-5-5-5-5-5-5--|
E|-------------------------------------------------------------------|

G|-------------------------------------------------------------------|
D|-------------------------------------------------------------------|
A|--3-3-3-3-3-3-3-3-3-3-3-3-3-3-3-3----------------------------------|
E|----------------------------------4-4-4-4-4-4-4-4-7-7-7-7-7-7-7-7--|

G|--------------------------------------------------------------------------------------------------|
D|--------------------------------------------------------------------------------------------------|
A|--6--6--6--6--6--6--6--6--6--6--6--6--6--6--6--6--3--3--3--3--3--3--3--3--------------------------|
E|--------------------------------------------------------------------------4--4--4--4--4--4--4--4--|

G|--------------------------------------------------------------------------------------|
D|--------------------------------------------------------------------------------------|
A|--6--6--6--6--6--6--6--6--6--6--6--6--5--5--5--5--3--3--3--3--3--3--3--3--------------|
E|--------------------------------------------------------------------------4-4----4-4--|


************************************

| /  Slide up
ⓘ Bass guitar tab for 'Sucks To Be You' by Emma Blackery, a female comedy artist from Basildon, Essex, England. Emma Blackery was born in 1991.

Almost there ...

Sign in to get your own page with links to favourite songs and more. You are just one click away...

Login with Facebook Login with Google