Search tabs and chords

Search for song, artist or band

Log in

One click and you are in

Login with Facebook Login with Google

Why sign up and log in

Guitar Tabs Explorer
Black Veil Brides guitar tabs for We stitch these wounds

We Stitch These Wounds tab by Black Veil Brides

Black Veil Brides guitar tabs for We stitch these wounds

Guitar tabs

*NEW 2010* We Stitch These Wounds (Album Version)

D|------------------------------------------------------------------|
A|------------------------------------------------------------------|
F| chord diagramF|F|--10--10--12--10--13--12--10--12--10--10--12--10--13--12--10--12--|
C| chord diagramC|C|------------------------------------------------------------------|
G|------------------------------------------------------------------|
C| chord diagramC|C|------------------------------------------------------------------|

D|-------------------------------------------------------------|
A|-------------------------------------------------------------|
F| chord diagramF|F|--8--8--10--8--12--10--8--10--13------12------10------8--10--|
C| chord diagramC|C|----------------------------------10------10------10---------|
G|-------------------------------------------------------------|
C| chord diagramC|C|-------------------------------------------------------------|

D|------------------------------------------------------------------|
A|------------------------------------------------------------------|
F| chord diagramF|F|--10--10--12--10--13--12--10--12--10--10--12--10--13--12--10--12--|
C| chord diagramC|C|------------------------------------------------------------------|
G|------------------------------------------------------------------|
C| chord diagramC|C|------------------------------------------------------------------|

D|------------------------------13--11--8--9--11--9--8-------|
A|------------------------------------------------------11---|
F| chord diagramF|F|--8--8--10--8--12--10--8--10-------------------------------|
C| chord diagramC|C|-----------------------------------------------------------|
G|-----------------------------------------------------------|
C| chord diagramC|C|-----------------------------------------------------------|

D|---------------------------------------------------------------------------------10--12--13--|
A|---------------------------------------------------------10--11--13--10--11--13--------------|
F| chord diagramF|F|-----------------------------------9--10--12--9--10--12--------------------------------------|
C| chord diagramC|C|-------------9--10--12--9--10--12------------------------------------------------------------|
G|--8--10--12----------------------------------------------------------------------------------|
C| chord diagramC|C|---------------------------------------------------------------------------------------------|

D|-/15--18--16--15--16--15------15----------------------18--16--15----------------|
A|--------------------------18------18--16--18--16--14--------------18--18b21r18--|
F| chord diagramF|F|--------------------------------------------------------------------------------|
C| chord diagramC|C|--------------------------------------------------------------------------------|
G|--------------------------------------------------------------------------------|
C| chord diagramC|C|--------------------------------------------------------------------------------|

D|---------------------------------|
A|-----------13/16--18--20b--------|
F| chord diagramF|F|--5/8--10-----------------19-----|
C| chord diagramC|C|---------------------------------|
G|---------------------------------|
C| chord diagramC|C|---------------------------------|

D|------16----------------------------------------------------------------------------------|
A|--18------18--16-18-----------------------------------------------------------------------|
F| chord diagramF|F|----------------------------20--17------17------------------------------------------------|
C| chord diagramC|C|---------------------15/18----------20------20--18--20--18------18------------------------|
G|------------------------------------------------------------20------20--18--20--18--------|
C| chord diagramC|C|------------------------------------------------------------------------------------------|

D|-----------------------------------------------------------------------------|
A|-----------------------------------------------------------------------------|
F| chord diagramF|F|-----------------------------------------------------------------------------|
C| chord diagramC|C|----------------------------------18------18--20--21--21--22--20--18---------|
G|------18------------------18--20------20------------------------------20-----|
C| chord diagramC|C|--20------20--18--20--22-----------------------------------------------------|

D|------------------------------------------------------------------|
A|------------------------------------------------------------------|
F| chord diagramF|F|----------13------15--13------17--15--13--15--13------13--15--13--|
C| chord diagramC|C|--15--15------15----------15----------------------15--------------|
G|------------------------------------------------------------------|
C| chord diagramC|C|------------------------------------------------------------------|

D|---------------------------------------------------|
A|------------------------------16--14/16--18b21r18--|
F| chord diagramF|F|----------13------15--13---------------------------|
C| chord diagramC|C|--15--15------15----------15-----------------------|
G|---------------------------------------------------|
C| chord diagramC|C|---------------------------------------------------|

D|----------------------------------------------18------------------|
A|--------------18--20--21----------18--20--21--------------18--21--|
F| chord diagramF|F|----------17------------------17----------------------17----------|
C| chord diagramC|C|------18------------------18----------------------18--------------|
G|--20--------------------------------------------------------------|
C| chord diagramC|C|------------------------------------------------------------------|

D|--20----------------------20----------------------20---------|
A|------21--------------21------21--------------21------21-----|
F| chord diagramF|F|----------22------22--------------22------22-----------------|
C| chord diagramC|C|--------------22----------------------22---------------------|
G|-------------------------------------------------------------|
C| chord diagramC|C|-------------------------------------------------------------|

D|------------------------------------------------------|
A|------------------------------------------------------|
F| chord diagramF|F|--22--22--17--17--18--20--18--17--18--17--------------|
C| chord diagramC|C|------------------------------------------20--18--17--|
G|------------------------------------------------------|
C| chord diagramC|C|------------------------------------------------------|

D|--16--15--13------13--15--16--15--13------13--15--16--15--13------------------------------|
A|--------------16----------------------16--------------------------------------------------|
F| chord diagramF|F|--------------------------------------------------------------17--15--13------13--15--17--|
C| chord diagramC|C|--------------------------------------------------------------------------15--------------|
G|------------------------------------------------------------------------------------------|
C| chord diagramC|C|------------------------------------------------------------------------------------------|

D|--13--15--18--16--15------15--16--18--16--15------15--16--18--16--15----------------------------|
A|----------------------18----------------------18------------------------------------------------|
F| chord diagramF|F|----------------------------------------------------------------------18--17--15------15--17--18|
C| chord diagramC|C|----------------------------------------------------------------------------------18------------|
G|------------------------------------------------------------------------------------------------|
C| chord diagramC|C|------------------------------------------------------------------------------------------------|

D|--15--16--20--18--20--18------18--20--21--20--18-|
A|--------------------------21---------------------|
F| chord diagramF|F|-------------------------------------------------|
C| chord diagramC|C|-------------------------------------------------|
G|-------------------------------------------------|
C| chord diagramC|C|-------------------------------------------------|

---------------------------------------------------|
-21--20--21--20--21--18--20--21--20h21p20--18--16\-|
---------------------------------------------------|
---------------------------------------------------|
---------------------------------------------------|
---------------------------------------------------|


D|------------------------------------------------------------------------------------------------|
A|------------------------------------------------------------------------------------------------|
F| chord diagramF|F|--20--18--17--------------18--17----------------------------------------------------------------|
C| chord diagramC|C|--------------20--18--17----------20--18--17------22--20--18--------------20--18--17------------|
G|----------------------------------------------20--------------22--20--18--------------20--18--16|
C| chord diagramC|C|------------------------------------------------------------------------------------------------|

D|----------------------|
A|-/18~~~~~~~-----------|
F| chord diagramF|F|----------------------|
C| chord diagramC|C|----------------------|
G|----------------------|

Almost there ...

Sign in to get your own page with links to favourite songs and more. You are just one click away...

Login with Facebook Login with Google