Search tabs and chords

Search for song, artist or band

Log in

One click and you are in

Login with Facebook Login with Google

Why sign up and log in

Guitar Tabs Explorer
Black Veil Brides guitar tabs for Wake up

Guitar tabs

Tuning: Drop C chord diagramCC (C chord diagramCC G chord diagramGG C chord diagramCC F chord diagramFF A chord diagramAA D chord diagramDD)

Difficulty: Advanced

Black Veil Brides - Wake Up
Intro (with delay)
D|--------------------------------------------------------------|
A|-----10----8----11----10----8-10-----6----8----6----5----5----|
F| chord diagramF|F|--7-----7----7-----7-----7--------7----7----7----7----7----7--|
C| chord diagramC|C|--------------------------------------------------------------|
G|--------------------------------------------------------------|
C| chord diagramC|C|--------------------------------------------------------------|

D|--------------------------------------------------------------|
A|-----10----8----11----10----8-10-----6----8----6----5~--------|
F| chord diagramF|F|--7-----7----7-----7-----7--------7----7----7----7------------|
C| chord diagramC|C|--------------------------------------------------------------|
G|--------------------------------------------------------------|
C| chord diagramC|C|--------------------------------------------------------------|

Verse
D|-----------------------------------------------------------------|
A|-----------------------------------------------------------------|
F| chord diagramF|F|-----------------------------------------------------------------|
C| chord diagramC|C|----------------------------------------------------------5------|
G|---------------0----------8------8h10-8--7-8--0-----------3------|
C| chord diagramC|C|--12///////////0------------------------------0------------------|

D|-----------------------------------------------------------------|
A|--------------------------------------------------10-8---------8-|
F| chord diagramF|F|---------------------------------------------7-7-------10-9-10---|
C| chord diagramC|C|----------------------5h7------3h5------2------------------------|
G|-----------------------------------------------------------------|
C| chord diagramC|C|-0-0-0-0-0-0-0-0-0-0------0-0------0-0---------------------------|

Chorus
D|-------------------------------------------------|
A|-------------------------------------------------|
F| chord diagramF|F|-------------------------------------------------|
C| chord diagramC|C|-0--0--0--0--0--0--0--0--8--8--8--8--8--8--8--8--|
G|-0--0--0--0--0--0--0--0--8--8--8--8--8--8--8--8--|
C| chord diagramC|C|-0--0--0--0--0--0--0--0--8--8--8--8--8--8--8--8--|

D|-------------------------------------------------|
A|-------------------------------------------------|
F| chord diagramF|F|-------------------------------------------------|
C| chord diagramC|C|-10-10-10-10-10-10-10-10--5--5--5--5--5--5--3----|
G|-10-10-10-10-10-10-10-10--5--5--5--5--5--5--3----|
C| chord diagramC|C|-10-10-10-10-10-10-10-10--5--5--5--5--5--5--3----|

D|-------------------------------------------------|
A|-------------------------------------------------|
F| chord diagramF|F|-------------------------------------------------|
C| chord diagramC|C|-0--0--0--0--0--0--0--0--8--8--8--8--8--8--8--8--|
G|-0--0--0--0--0--0--0--0--8--8--8--8--8--8--8--8--|
C| chord diagramC|C|-0--0--0--0--0--0--0--0--8--8--8--8--8--8--8--8--|

D|-------------------------------------------------|
A|-------------------------------------------------|
F| chord diagramF|F|-------------------------------------------------|
C| chord diagramC|C|-10-10-10-10-10-10-10-10-10-10-10-10-10-10-10-10-|
G|-10-10-10-10-10-10-10-10-10-10-10-10-10-10-10-10-|
C| chord diagramC|C|-10-10-10-10-10-10-10-10-10-10-10-10-10-10-10-10-|

Break
D|----------------------------------------------------------------|
A|----------------------------------------------------------------|
F| chord diagramF|F|-7--5--7---------7--5--10--5--7--7--5--7---------7--5--10--5--7-|
C| chord diagramC|C|-7--5--7---------7--5--10--5--7--7--5--7---------7--5--10--5--7-|
G|-5--3--5---------5--3--8---3--5--5--3--5---------5--3--8---3--5-|
C| chord diagramC|C|----------0-0-0--------------------------0-0-0------------------|

Verse
D|--------------------------------------------------------------|
A|------------------------------------10h11p10----10-------/10--|
F| chord diagramF|F|---------------------------------------------12----12-10------|
C| chord diagramC|C|-----14----12----15----14----12/14----------------------------|
G|-----12----10----13----12----10/12----------------------------|
C| chord diagramC|C|-0-0-----0-----0-----0-----0----------------------------------|

D|--------------------------------------------------------------|
A|-/13-15-13----------------------------------------------------|
F| chord diagramF|F|--------------------------------------------------------------|
C| chord diagramC|C|-----------/10-12-10-------14----12----15----14----12/14------|
G|---------------------------12----10----13----12----10/12------|
C| chord diagramC|C|-----------------------0-0-----0-----0-----0-----0------------|

D|--------------------------------------------------------------|
A|--------------------------------------------------------------|
F| chord diagramF|F|-/14--10-12--/10-9-----------7--7---9--9---10--10--12--12-----|
C| chord diagramC|C|-------------------7--8-7-5--x--x---x--x---x---x---x---x------|
G|-----------------------------5--5---7--7---8---8---10--10-----|
C| chord diagramC|C|--------------------------------------------------------------|

D|--------------------------------------------------------------|
A|--------------------------------------------------------------|
F| chord diagramF|F|-10--10--12--12---14--14---15--15-----------------------------|
C| chord diagramC|C|-x---x---x---x----x---x----x---x------------------------------|
G|-8---8---10--10---12--12---13--13-----------------------------|
C| chord diagramC|C|--------------------------------------------------------------|

Chorus
D|-------------------------------------------------|
A|-------------------------------------------------|
F| chord diagramF|F|-------------------------------------------------|
C| chord diagramC|C|-0--0--0--0--0--0--0--0--8--8--8--8--8--8--8--8--|
G|-0--0--0--0--0--0--0--0--8--8--8--8--8--8--8--8--|
C| chord diagramC|C|-0--0--0--0--0--0--0--0--8--8--8--8--8--8--8--8--|

D|-------------------------------------------------|
A|-------------------------------------------------|
F| chord diagramF|F|-------------------------------------------------|
C| chord diagramC|C|-10-10-10-10-10-10-10-10--5--5--5--5--5--5--3----|
G|-10-10-10-10-10-10-10-10--5--5--5--5--5--5--3----|
C| chord diagramC|C|-10-10-10-10-10-10-10-10--5--5--5--5--5--5--3----|

D|-------------------------------------------------|
A|-------------------------------------------------|
F| chord diagramF|F|-------------------------------------------------|
C| chord diagramC|C|-0--0--0--0--0--0--0--0--8--8--8--8--8--8--8--8--|
G|-0--0--0--0--0--0--0--0--8--8--8--8--8--8--8--8--|
C| chord diagramC|C|-0--0--0--0--0--0--0--0--8--8--8--8--8--8--8--8--|

D|-------------------------------------------------|
A|-------------------------------------------------|
F| chord diagramF|F|-------------------------------------------------|
C| chord diagramC|C|-10-10-10-10-10-10-10-10-10-10-10-10-10-10-10-10-|
G|-10-10-10-10-10-10-10-10-10-10-10-10-10-10-10-10-|
C| chord diagramC|C|-10-10-10-10-10-10-10-10-10-10-10-10-10-10-10-10-|

Solo
D|------------------------------------------------------------------|
A|10t15h10p6t15h10p6t15h10p6t15h10p6t15h10p6t15h10p6t15h10p6t15h10p6|
F| chord diagramF|F|------------------------------------------------------------------|
C| chord diagramC|C|------------------------------------------------------------------|
G|------------------------------------------------------------------|
C| chord diagramC|C|------------------------------------------------------------------|

D|-----------------------------------------------------------------|
A|h11t15h11p6t15h11p6t15h11p6t15h11p6t15h11p6t15h11p6t15h11p6t15h11|
F| chord diagramF|F|-----------------------------------------------------------------|
C| chord diagramC|C|-----------------------------------------------------------------|
G|-----------------------------------------------------------------|
C| chord diagramC|C|-----------------------------------------------------------------|

D|------------------------------------------------------------------|
A|8h13t17h13p8t17h13p8t17h13p8t17h13p8t18h13p8t18h13p8t17h13p8t17h13|
F| chord diagramF|F|------------------------------------------------------------------|
C| chord diagramC|C|------------------------------------------------------------------|
G|------------------------------------------------------------------|
C| chord diagramC|C|------------------------------------------------------------------|

?
D|----------------------------------------------10-12-13-15-/17-|
A|-----------------------------8-10-12-10-12-13-----------------|
F| chord diagramF|F|--------------------8-10-12-----------------------------------|
C| chord diagramC|C|----------10-12-13--------------------------------------------|
G|-10-12-13-----------------------------------------------------|
C| chord diagramC|C|--------------------------------------------------------------|

D|-15h17p15-13h15p13-12-13-12----13-12----13p12--17-13----17-13-|
A|----------------------------13-------13--------------15-------|
F| chord diagramF|F|--------------------------------------------------------------|
C| chord diagramC|C|--------------------------------------------------------------|
G|--------------------------------------------------------------|
C| chord diagramC|C|--------------------------------------------------------------|

D|----17p13--15-12----15p12-15-12--------------------15-13-15-17---|
A|-15--------------13-------------13------------13-15-----------15-|
F| chord diagramF|F|-----------------------------------9h10-12-15--------------------|
C| chord diagramC|C|-----------------------------------------------------------------|
G|-----------------------------------------------------------------|
C| chord diagramC|C|-----------------------------------------------------------------|

silence:

Chorus
D|-------------------------------------------------|\t|
A|-------------------------------------------------|\t|
F| chord diagramF|F|-------------------------------------------------|\t|
C| chord diagramC|C|-0--0--0--0--0--0--0--0--8--8--8--8--8--8--8--8--|\t|
G|-0--0--0--0--0--0--0--0--8--8--8--8--8--8--8--8--|\t|
C| chord diagramC|C|-0--0--0--0--0--0--0--0--8--8--8--8--8--8--8--8--|\t|
\t\t\t\t\t\t\t|
D|-------------------------------------------------|\t|
A|-------------------------------------------------|\t|
F| chord diagramF|F|-------------------------------------------------|\t|
C| chord diagramC|C|-10-10-10-10-10-10-10-10--5--5--5--5--5--5--3----|\t|
G|-10-10-10-10-10-10-10-10--5--5--5--5--5--5--3----|\t|
C| chord diagramC|C|-10-10-10-10-10-10-10-10--5--5--5--5--5--5--3----|\t|
\t\t\t\t\t\t\t| 2x
D|-------------------------------------------------|\t|
A|-------------------------------------------------|\t|
F| chord diagramF|F|-------------------------------------------------|\t|
C| chord diagramC|C|-0--0--0--0--0--0--0--0--8--8--8--8--8--8--8--8--|\t|
G|-0--0--0--0--0--0--0--0--8--8--8--8--8--8--8--8--|\t|
C| chord diagramC|C|-0--0--0--0--0--0--0--0--8--8--8--8--8--8--8--8--|\t|
\t\t\t\t\t\t\t|
D|-------------------------------------------------|\t|
A|-------------------------------------------------|\t|
F| chord diagramF|F|-------------------------------------------------|\t|
C| chord diagramC|C|-10-10-10-10-10-10-10-10-10-10-10-10-10-10-10-10-|\t|
G|-10-10-10-10-10-10-10-10-10-10-10-10-10-10-10-10-|\t|
C| chord diagramC|C|-10-10-10-10-10-10-10-10-10-10-10-10-10-10-10-10-|\t|

Ending
D|--------------------------------------------------------------|
A|--------------------------------------------------------------|
F| chord diagramF|F|-7--5--7---------7--5--10--5--7--7--5--7-------7--5--10--5--7-|
C| chord diagramC|C|-7--5--7---------7--5--10--5--7--7--5--7-------7--5--10--5--7-|
G|-5--3--5---------5--3--8---3--5--5--3--5-------5--3--8---3--5-|
C| chord diagramC|C|----------0-0-0--------------------------0-0-0----------------|

D|--------------------------------------------------------------|
A|--------------------------------------------------------------|
F| chord diagramF|F|-7--5--7---------7--5--10--5--7--7--5--7----------------------|
C| chord diagramC|C|-7--5--7---------7--5--10--5--7--7--5--7----------------------|
G|-5--3--5---------5--3--8---3--5--5--3--5----------0--0--0-----|
C| chord diagramC|C|----------0-0-0--------------------------0-0-0----0--0--0-----|

Other versions of Wake Up

Wake upChords

Almost there ...

Sign in to get your own page with links to favourite songs and more. You are just one click away...

Login with Facebook Login with Google