Search tabs and chords

Search for song, artist or band

Log in

One click and you are in

Login with Facebook Login with Google

Why sign up and log in

Guitar Tabs Explorer
Black Veil Brides guitar tabs for Sons of night

Guitar tabs

Intro

Guitar 3
D|----------------------------------------------------------------------------|
A|----------------------------------------------------------------------------|
F| chord diagramF|F|-------------5--------------------------------------------------------------|
C| chord diagramC|C|----2--------5--X16---5--------7--------------------------------------------|
G|----2--X16---3--------5--X16---5--X16---------------------------------------|
C| chord diagramC|C|----2-----------------5--------4--------------------------------------------|

Guitar 1
D|----------------------------------------------------------------------------|
A|-----------------------------17-15-13-15-12--12-13-15-13h15p13-12-----------|
F|9 chord diagramF|9F|9-11-12-12/14-12-------11-----------------------------------------12--------|
C| chord diagramC|C|-----------------12-14----12------------------------------------------------|
G|----------------------------------------------------------------------------|
C| chord diagramC|C|----------------------------------------------------------------------------|

D|14-10----------------------10-14--17-14----------14-17--20-17----------17-19|
A|------12----------------12--------------15----15--------------19----19------|
F| chord diagramF|F|---------11----------11--------------------16--------------------20---------|
C| chord diagramC|C|------------12----12--------------------------------------------------------|
G|---------------14-----------------------------------------------------------|
C| chord diagramC|C|----------------------------------------------------------------------------|

Guitar 2
D|-------------------------------15-14-12-14-10--10-12-14-12h14p12-----------|
A|8-10-12-12/13-12--------12---------------------------------------12--------|
F| chord diagramF|F|------------------12-14----12----------------------------------------------|
C| chord diagramC|C|---------------------------------------------------------------------------|
G|---------------------------------------------------------------------------|
C| chord diagramC|C|---------------------------------------------------------------------------|


Verse

Guitar 3
D|---------------------------------------------------------------------------|
A|---------------------------------------------------------------------------|
F| chord diagramF|F|----------------4-------2-----4----5----------------5-------4-4------------|
C|2 chord diagramC|2C|2--2-2-2-2-2-2--4-------2-----4----5---2-2-2-2-2-2--5-------4-4------------|
G|2--2-2-2-2-2-2-------------------------2-2-2-2-2-2-------------------------|
C|2 chord diagramC|2C|2--2-2-2-2-2-2----2-2-----2-----2------2-2-2-2-2-2-----2-2-----------------|

D|---------------------------------------------------------------------------|
A|---------------------------------------------------------------------------|
F| chord diagramF|F|----------------9-------7-----9--------------------------------------------|
C|5 chord diagramC|5C|5--5-5-5-5-5-5--5-------5-----5--7--7-7-7-7-7-7-7-7-7-7-7------------------|     X 2
G|5--5-5-5-5-5-5-------------------5--5-5-5-5-5-5-5-5-5-5-5------------------|
C|5 chord diagramC|5C|5--5-5-5-5-5-5-----5-5-----5-----4--4-4-4-4-4-4-4-4-4-4-4--5-4-------------|

Pre-Chorus

Guitar 1
D|---------------------------------------------------------------------------|
A|7b9---7-8-8b10br8-7---10b12------------------------------------------------|
F| chord diagramF|F|----9---------------9------------------------------------------------------|
C| chord diagramC|C|---------------------------------------------------------------------------|
G|---------------------------------------------------------------------------|
C| chord diagramC|C|---------------------------------------------------------------------------|


Chorus

Guitar 1
D|------------------------12----12-14-15-14-12-------------------------------|
A|---------------12----12----12----------------12----------------------------|
F| chord diagramF|F|------12----12----12-------------------------------------------------------|
C| chord diagramC|C|---12----12----------------------------------------------------------------|
G|14-------------------------------------------------------------------------|
C| chord diagramC|C|---------------------------------------------------------------------------|

D|---------------------------------------------------------------------------|
A|17-13----13-15-13----13--15-13-12-13-15-13-12------------------------------|
F| chord diagramF|F|------14----------14--------------------------12---------------------------|
C| chord diagramC|C|---------------------------------------------------------------------------|
G|---------------------------------------------------------------------------|
C| chord diagramC|C|---------------------------------------------------------------------------|

D|---------------12----12-15----17-19-22-19-17-------------------------------|
A|------12----12----12-------17----------------19----------------------------|
F|12 chord diagramF|12F|12-12----12----------------------------------------------------------------|
C| chord diagramC|C|---------------------------------------------------------------------------|
G|---------------------------------------------------------------------------|
C| chord diagramC|C|---------------------------------------------------------------------------|

D|20-17----------------------------------------------------------------------|
A|------19----19-----------19-16-------------19-16---------------------------|
F| chord diagramF|F|---------20----20-17-----------17----17------------------------------------|
C| chord diagramC|C|---------------------19-----------19----19---------------------------------|
G|---------------------------------------------------------------------------|
C| chord diagramC|C|---------------------------------------------------------------------------|

Guitar 2
D|----------------12----12-15-12-15-17-19-17-15------------------------------|
A|------12-----12----12-------------------------17---------------------------|
F| chord diagramF|F|---12-----12---------------------------------------------------------------|
C|14 chord diagramC|14C|14-------------------------------------------------------------------------|
G|---------------------------------------------------------------------------|
C| chord diagramC|C|---------------------------------------------------------------------------|

D|20-15----15----------------------------------------------------------------|
A|------17----17----17-------------------------------------------------------|
F| chord diagramF|F|---------------17----17-16-17-16----16-------------------------------------|
C| chord diagramC|C|---------------------------------17----17-14-17----------------------------|
G|---------------------------------------------------------------------------|
C| chord diagramC|C|---------------------------------------------------------------------------|

D|---------------------------------15-19-15-14-15----------------------------|
A|------------------------------19-------------------------------------------|
F| chord diagramF|F|---------------16----16-19-16----------------------------------------------|
C| chord diagramC|C|------17----17----17-------------------------------------------------------|
G|14-17----17----------------------------------------------------------------|
C| chord diagramC|C|---------------------------------------------------------------------------|

D|17-14----------------------------------------------------------------------|
A|------16----16----------16-13-------------16-13----------------------------|
F| chord diagramF|F|---------17----17-14----------14----14-------------------------------------|
C| chord diagramC|C|---------------------16----------16----16----------------------------------|
G|---------------------------------------------------------------------------|
C| chord diagramC|C|---------------------------------------------------------------------------|

Guitar 3
D|----------------------------------------------------------------------------|
A|----------------------------------------------------------------------------|
F| chord diagramF|F|-------------5--------------------------------------------------------------|
C| chord diagramC|C|----2--------5--X16---5--------7--------------------------------------------|
G|----2--X16---3--------5--X16---5--X16---------------------------------------|
C| chord diagramC|C|----2-----------------5--------4--------------------------------------------|


Bridge

Guitar 3
D|---------------------------------------------------------------------------|
A|---------------------------------------------------------------------------|
F| chord diagramF|F|---------------------------------------------------------------------------|
C|2 chord diagramC|2C|2-2--2-2--2-2-----------------2-2--2-2--2-2--------------------------------|
G|2-2--2-2--2-2--3p2---2--------2-2--2-2--2-2--3p2---------------------------|
C|2 chord diagramC|2C|2-2--2-2--2-2------2---2-5h7--2-2--2-2--2-2------2-5*----------------------|

D|---------------------------------------------------------------------------|
A|---------------------------------------------------------------------------|
F| chord diagramF|F|-------------------------------------------4-------------------------------|
C|2 chord diagramC|2C|2-2--2-2--2-2-----------------5-5--5-5--5--4-------------------------------|
G|2-2--2-2--2-2--3p2---2--------5-5--5-5--5--2-------------------------------|
C|2 chord diagramC|2C|2-2--2-2--2-2------2---2-5h7--5-5--5-5--5----------------------------------|

Guitar 1
D|19-17----17----------------------------------------------------------------|
A|------19----19-17-16-------------------------------------------------------|
F| chord diagramF|F|---------------------------------------------------------------------------|
C| chord diagramC|C|---------------------------------------------------------------------------|
G|---------------------------------------------------------------------------|
C| chord diagramC|C|---------------------------------------------------------------------------|

Guitar 2
D|---------------------------------------------------------------------------|
A|19-17-16-17-16-------------------------------------------------------------|
F| chord diagramF|F|---------------17-16-------------------------------------------------------|
C| chord diagramC|C|---------------------------------------------------------------------------|
G|---------------------------------------------------------------------------|
C| chord diagramC|C|---------------------------------------------------------------------------|

Verse
Pre-Chorus
Chorus
Bridge X2


Solo

Guitar 1
D|---------------------------------------------------------------------------|
A|8---8-/13-12-10-12-10-8-8h10p8-7-8---7-----7-8-----------------------------|
F| chord diagramF|F|--9--------------------------------9---7-9---------------------------------|
C| chord diagramC|C|---------------------------------------------------------------------------|
G|---------------------------------------------------------------------------|
C| chord diagramC|C|---------------------------------------------------------------------------|

D|17-17-17-17-17-17--14-14--15-15-15-15-15-15-15--10-10--14-14-14-14-14-14---|
A|---------------------------------------------------------------------------|
F| chord diagramF|F|---------------------------------------------------------------------------|
C| chord diagramC|C|---------------------------------------------------------------------------|
G|---------------------------------------------------------------------------|
C| chord diagramC|C|---------------------------------------------------------------------------|

D|11-11-11--12-12-12--14-14-14--11-12-14-------------------------------------|
A|---------------------------------------------------------------------------|
F| chord diagramF|F|---------------------------------------------------------------------------|
C| chord diagramC|C|---------------------------------------------------------------------------|
G|---------------------------------------------------------------------------|
C| chord diagramC|C|---------------------------------------------------------------------------|

D|15p12h14p12h15p12h14p12h15p12h14p12h15p12h14p12----------------------------|
A|---------------------------------------------------------------------------|
F| chord diagramF|F|---------------------------------------------------------------------------|
C| chord diagramC|C|---------------------------------------------------------------------------|
G|---------------------------------------------------------------------------|
C| chord diagramC|C|---------------------------------------------------------------------------|

D|17p14h15p14h17p14h15p14h17p14h15p14h17p14h15p14h---------------------------|
A|---------------------------------------------------------------------------|
F| chord diagramF|F|---------------------------------------------------------------------------|
C| chord diagramC|C|---------------------------------------------------------------------------|
G|---------------------------------------------------------------------------|
C| chord diagramC|C|---------------------------------------------------------------------------|

D|19p15h17p15h19p15h17p15h19p15h17p15h19p15h17p15h---------------------------|
A|---------------------------------------------------------------------------|
F| chord diagramF|F|---------------------------------------------------------------------------|
C| chord diagramC|C|---------------------------------------------------------------------------|
G|---------------------------------------------------------------------------|
C| chord diagramC|C|---------------------------------------------------------------------------|

D|14p10h12p10h14p10h12p10h14p10h12p10h14p10h12p10h---------------------------|
A|---------------------------------------------------------------------------|
F| chord diagramF|F|---------------------------------------------------------------------------|
C| chord diagramC|C|---------------------------------------------------------------------------|
G|---------------------------------------------------------------------------|
C| chord diagramC|C|---------------------------------------------------------------------------|

D|---------------------------------------------------------------------------|
A|11-11h15/17-15h17-17b20-17-16----------------------------------------------|
F| chord diagramF|F|---------------------------------------------------------------------------|
C| chord diagramC|C|---------------------------------------------------------------------------|
G|---------------------------------------------------------------------------|
C| chord diagramC|C|---------------------------------------------------------------------------|

D|---------------14-17-14-------------------------------15-19----------------|
A|------------15----------15-------------------------17----------------------|
F| chord diagramF|F|---------16----------------16-------------------16-------------------------|
C| chord diagramC|C|------16----------------------16-------------17----------------------------|
G|14-17----------------------------17-14-14h19-------------------------------|
C| chord diagramC|C|---------------------------------------------------------------------------|


Breakdown

Guitar 3
D|---------------------------------------------------------------------------|
A|---------------------------------------------------------------------------|
F| chord diagramF|F|---------------------------------------------------------------------------|
C| chord diagramC|C|------------------------5-4-2----------------------2---2-------------------|
G|------------------------------2-3-3-3-3-3-3-3-3--3---3---3-----------------|
C|2 chord diagramC|2C|2-2-2-2-2-2-2-2-2-2-2-2----------------------------------------------------|

D|---------------------------------------------------------------------------|
A|---------------------------------------------------------------------------|
F| chord diagramF|F|---------------------------------------------------------------------------|
C| chord diagramC|C|---------------------------------------------------------------------------|
G|2-3-2-0---------------------------------3-3-3-3-3-3-3-3-3-3-3-3-3-3-3-3----|
C| chord diagramC|C|--------5-5-5-5-5-5-5-5-5-5-5-5-5-5-5-5------------------------------------|

Chorus
Bridge

Any corrections at lucas.nicolle50@gmail.com

************************************

| /   slide up
| \   slide down
| h   hammer-on
| p   pull-off
| ~   vibrato
| +   harmonic
| x   Mute note
| b   Bend
| pb  Pre-bend
| br  Bend release
| pbr Pre-bend release
| brb Bend release bend

************************************

Almost there ...

Sign in to get your own page with links to favourite songs and more. You are just one click away...

Login with Facebook Login with Google