Search tabs and chords

Search for song, artist or band

Log in

One click and you are in

Login with Facebook Login with Google

Why sign up and log in

Guitar Tabs Explorer
Black Veil Brides guitar tabs for Resurrect the sun

Guitar tabs with lyrics

Difficulty: Advanced

Resurrect the Sun
Black Veil Brides
-----------------
Yes, they do look like retards but the music is cool...
Have fun!
Submitted by sonja

Guitar 1 Rhythmic (C chord diagramCC G chord diagramGG C chord diagramCC F chord diagramFF A chord diagramAA D chord diagramDD)
Guitar 2 Lead     (C chord diagramCC G chord diagramGG C chord diagramCC F chord diagramFF A chord diagramAA D chord diagramDD)
Guitar 3 Acoustic (C chord diagramCC G chord diagramGG C chord diagramCC F chord diagramFF A chord diagramAA D chord diagramDD)

NOTE: This was exported off of guitar pro.

Guitar 1

Q     Q     Q        Q     Q     Q        Q     Q     Q
B||--------------14----|--------------14----|--------------14----|
B||--------15----------|--------15----------|--------15----------|
F|| chord diagramF||F||--16----------------|--16----------------|--14----------------|
C|| chord diagramC||C||--------------------|--------------------|--------------------|
B||--------------------|--------------------|--------------------|
C|| chord diagramC||C||--------------------|--------------------|--------------------|

Q     Q     Q        Q     Q     Q        Q     Q     Q
--------------14----|--------------14----|--------------14----|
--------15----------|--------------15----|--------------15----|
--14----------------|--------16----------|--------16----------|
--------------------|--17----------------|--17----------------|
--------------------|--------------------|--------------------|
--------------------|--------------------|--------------------|

Q     Q     Q        Q     Q     Q        Q     Q     Q
--------------14----|--------------14----|--------------14----|
--------------15----|--------------14----|--------15----------|
--------16----------|--------16----------|--16----------------|
--14----------------|--16----------------|--------------------|
--------------------|--------------------|--------------------|
--------------------|--------------------|--------------------|

Q     Q     Q        Q     Q     Q        Q     Q     Q
--------------14----|--------------14----|--------------14----|
--------15----------|--------15----------|--------15----------|
--16----------------|--14----------------|--14----------------|
--------------------|--------------------|--------------------|
--------------------|--------------------|--------------------|
--------------------|--------------------|--------------------|

Q     Q     Q        Q     Q     Q        Q     Q     Q
--------------14----|--------------14----|--------------14----|
--------------15----|--------------15----|--------------15----|
--------16----------|--------16----------|--------16----------|
--17----------------|--17----------------|--14----------------|
--------------------|--------------------|--------------------|
--------------------|--------------------|--------------------|

Q     Q     Q        Q     Q     Q        Q     Q     Q
--------------14----|--------------14----|--------------14----|
--------------14----|--------15----------|--------15----------|
--------16----------|--16----------------|--16----------------|
--16----------------|--------------------|--------------------|
--------------------|--------------------|--------------------|
--------------------|--------------------|--------------------|

Q     Q     Q        Q     Q     Q        Q     Q     Q
--------------14----|--------------14----|--------------14----|
--------15----------|--------15----------|--------------15----|
--14----------------|--14----------------|--------16----------|
--------------------|--------------------|--17----------------|
--------------------|--------------------|--------------------|
--------------------|--------------------|--------------------|

Q     Q     Q        Q     Q     Q        Q     Q     Q
--------------14----|--------------14----|--------------14----|
--------------15----|--------------15----|--------------14----|
--------16----------|--------16----------|--------16----------|
--17----------------|--14----------------|--14----------------|
--------------------|--------------------|--------------------|
--------------------|--------------------|--------------------|

Q     Q     Q        Q     Q     Q        Q     Q     Q
--------------14----|--------------14----|--------------14----|
--------15----------|--------15----------|--------15----------|
--16----------------|--16----------------|--14----------------|
--------------------|--------------------|--------------------|
--------------------|--------------------|--------------------|
--------------------|--------------------|--------------------|

Q     Q     Q        Q     Q     Q        Q     Q     Q
--------------14----|--------------14----|--------------14----|
--------15----------|--------------15----|--------------15----|
--14----------------|--------16----------|--------16----------|
--------------------|--17----------------|--17----------------|
--------------------|--------------------|--------------------|
--------------------|--------------------|--------------------|

Q     Q     Q        Q     Q     Q        Q     Q     Q
--------------14----|--------------14----|--------------14----|
--------------15----|--------------14----|--------15----------|
--------16----------|--------16----------|--16----------------|
--14----------------|--14----------------|--------------------|
--------------------|--------------------|--------------------|
--------------------|--------------------|--------------------|

Q     Q     Q        Q     Q     Q        Q     Q     Q
--------------14----|--------------14----|--------------14----|
--------15----------|--------15----------|--------15----------|
--16----------------|--14----------------|--14----------------|
--------------------|--------------------|--------------------|
--------------------|--------------------|--------------------|
--------------------|--------------------|--------------------|

Q     Q     Q        Q     Q     Q        Q     Q     Q
--------------14----|--------------14----|--------------14----|
--------------15----|--------------15----|--------------15----|
--------16----------|--------16----------|--------16----------|
--17----------------|--17----------------|--14----------------|
--------------------|--------------------|--------------------|
--------------------|--------------------|--------------------|

Q     Q     Q        Q     Q     Q        Q     Q     Q
--------------14----|--------------14----|--------------14----|
--------------14----|--------15----------|--------15----------|
--------16----------|--16----------------|--16----------------|
--14----------------|--------------------|--------------------|
--------------------|--------------------|--------------------|
--------------------|--------------------|--------------------|

Q     Q     Q        Q     Q     Q        Q     Q     Q
--------------14----|--------------14----|--------------14----|
--------15----------|--------15----------|--------12----14----|
--13----------------|--------------------|--14----------------|
--------------------|--14----------------|--------------------|
--------------------|--------------------|--------------------|
--------------------|--------------------|--------------------|

Q     Q     Q        Q     Q     Q        H chord diagramHH        Q
--------------14----|--------------14----|--14--------L----|
--------12----14----|--------14----------|--14--------L----|
--14----------------|--15----------------|--15--------L----|
--------------------|--------------------|-----------------|
--------------------|--------------------|-----------------|
--------------------|--------------------|-----------------|

E chord diagramEE  E chord diagramEE  E chord diagramEE  E chord diagramEE  E chord diagramEE  E chord diagramEE  E chord diagramEE  E chord diagramEE     E chord diagramEE  E chord diagramEE  E chord diagramEE  E chord diagramEE  E chord diagramEE  E chord diagramEE  E chord diagramEE  E chord diagramEE
--------------------------|--------------------------|
--------------------------|--------------------------|
--4--4--4--4--4--4--4--4--|--------------------------|
--4--4--4--4--4--4--4--4--|--5--5--5--5--5--5--5--5--|
--2--2--2--2--2--2--2--2--|--5--5--5--5--5--5--5--5--|
--------------------------|--5--5--5--5--5--5--5--5--|

E chord diagramEE  E chord diagramEE  E chord diagramEE  E chord diagramEE  E chord diagramEE  E chord diagramEE  E chord diagramEE  E chord diagramEE     E chord diagramEE  E chord diagramEE  E chord diagramEE  E chord diagramEE  E chord diagramEE  E chord diagramEE  E chord diagramEE  E chord diagramEE
--------------------------|--------------------------|
--------------------------|--------------------------|
--------------------------|--2--2--2--2--2--2--2--2--|
--0--0--0--0--0--0--0--0--|--2--2--2--2--2--2--2--2--|
--0--0--0--0--0--0--0--0--|--0--0--0--0--0--0--0--0--|
--0--0--0--0--0--0--0--0--|--------------------------|

E chord diagramEE  E chord diagramEE  E chord diagramEE  E chord diagramEE  E chord diagramEE  E chord diagramEE  E chord diagramEE  E chord diagramEE     E chord diagramEE  E chord diagramEE  E chord diagramEE  E chord diagramEE  E chord diagramEE  E chord diagramEE  E chord diagramEE  E chord diagramEE
--------------------------|--------------------------|
--------------------------|--------------------------|
--4--4--4--4--4--4--4--4--|--------------------------|
--4--4--4--4--4--4--4--4--|--5--5--5--5--5--5--5--5--|
--2--2--2--2--2--2--2--2--|--5--5--5--5--5--5--5--5--|
--------------------------|--5--5--5--5--5--5--5--5--|

E chord diagramEE  E chord diagramEE  E chord diagramEE  E chord diagramEE  E chord diagramEE  E chord diagramEE  E chord diagramEE  E chord diagramEE     E chord diagramEE  E chord diagramEE  E chord diagramEE  E chord diagramEE  E chord diagramEE  E chord diagramEE  E chord diagramEE  E chord diagramEE
--------------------------|--------------------------|
--------------------------|--------------------------|
--------------------------|--2--2--2--2--2--2--2--2--|
--2--2--2--2--2--2--2--2--|--2--2--2--2--2--2--2--2--|
--2--2--2--2--2--2--2--2--|--0--0--0--0--0--0--0--0--|
--2--2--2--2--2--2--2--2--|--------------------------|

E chord diagramEE  E chord diagramEE  E chord diagramEE  E chord diagramEE  E chord diagramEE  E chord diagramEE  E chord diagramEE  E chord diagramEE     E chord diagramEE  E chord diagramEE  E chord diagramEE  E chord diagramEE  E chord diagramEE  E chord diagramEE  E chord diagramEE  E chord diagramEE
--------------------------|--------------------------|
--------------------------|--------------------------|
--4--4--4--4--4--4--4--4--|--------------------------|
--4--4--4--4--4--4--4--4--|--5--5--5--5--5--5--5--5--|
--2--2--2--2--2--2--2--2--|--5--5--5--5--5--5--5--5--|
--------------------------|--5--5--5--5--5--5--5--5--|

E chord diagramEE  E chord diagramEE  E chord diagramEE  E chord diagramEE  E chord diagramEE  E chord diagramEE  E chord diagramEE  E chord diagramEE     E chord diagramEE  E chord diagramEE  E chord diagramEE  E chord diagramEE  E chord diagramEE  E chord diagramEE  E chord diagramEE  E chord diagramEE
--------------------------|--------------------------|
--------------------------|--------------------------|
--------------------------|--2--2--2--2--6--6--6--6--|
--0--0--0--0--0--0--0--0--|--2--2--2--2--6--6--6--6--|
--0--0--0--0--0--0--0--0--|--0--0--0--0--4--4--4--4--|
--0--0--0--0--0--0--0--0--|--------------------------|

E chord diagramEE  E chord diagramEE  E chord diagramEE  E chord diagramEE  E chord diagramEE  E chord diagramEE  E chord diagramEE  E chord diagramEE     E chord diagramEE  E chord diagramEE  E chord diagramEE  E chord diagramEE  E chord diagramEE  E chord diagramEE  E chord diagramEE  E chord diagramEE
--------------------------|--------------------------|
--------------------------|--------------------------|
--4--4--4--4--4--4--4--4--|--------------------------|
--4--4--4--4--4--4--4--4--|--5--5--5--5--5--5--5--5--|
--2--2--2--2--2--2--2--2--|--5--5--5--5--5--5--5--5--|
--------------------------|--5--5--5--5--5--5--5--5--|

E chord diagramEE  E chord diagramEE  E chord diagramEE  E chord diagramEE  E chord diagramEE  E chord diagramEE  E chord diagramEE  E chord diagramEE     H chord diagramHH        Q        Q     Q     Q
--------------------------|----------------|--------------14----|
--------------------------|----------------|--------15----------|
--------------------------|----------------|--16----------------|
--0--0--0--0--0--0--0--0--|--4--------L----|--------------------|
--0--0--0--0--0--0--0--0--|--4--------L----|--------------------|
--0--0--0--0--0--0--0--0--|--4--------L----|--------------------|

Q     Q     Q        Q     Q     Q        Q     Q     Q
--------------14----|--------------14----|--------------14----|
--------15----------|--------15----------|--------15----------|
--16----------------|--14----------------|--14----------------|
--------------------|--------------------|--------------------|
--------------------|--------------------|--------------------|
--------------------|--------------------|--------------------|

Q     Q     Q        Q     Q     Q        Q     Q     Q
--------------14----|--------------14----|--------------14----|
--------------15----|--------------15----|--------------15----|
--------16----------|--------16----------|--------16----------|
--17----------------|--17----------------|--14----------------|
--------------------|--------------------|--------------------|
--------------------|--------------------|--------------------|

Q     Q     Q        Q     Q     Q        Q     Q     Q
--------------14----|--------------14----|--------------14----|
--------------14----|--------15----------|--------15----------|
--------16----------|--16----------------|--16----------------|
--14----------------|--------------------|--------------------|
--------------------|--------------------|--------------------|
--------------------|--------------------|--------------------|

Q     Q     Q        Q     Q     Q        Q     Q     Q
--------------14----|--------------14----|--------------14----|
--------15----------|--------15----------|--------------15----|
--14----------------|--14----------------|--------16----------|
--------------------|--------------------|--17----------------|
--------------------|--------------------|--------------------|
--------------------|--------------------|--------------------|

Q     Q     Q        Q     Q     Q        Q     Q     Q
--------------14----|--------------14----|--------------14----|
--------------15----|--------------15----|--------------14----|
--------16----------|--------16----------|--------16----------|
--17----------------|--14----------------|--14----------------|
--------------------|--------------------|--------------------|
--------------------|--------------------|--------------------|

Q     Q     Q        Q     Q     Q        Q     Q     Q
--------------14----|--------------14----|--------------14----|
--------15----------|--------15----------|--------15----------|
--16----------------|--16----------------|--14----------------|
--------------------|--------------------|--------------------|
--------------------|--------------------|--------------------|
--------------------|--------------------|--------------------|

Q     Q     Q        Q     Q     Q        Q     Q     Q
--------------14----|--------------14----|--------------14----|
--------15----------|--------------15----|--------------15----|
--14----------------|--------16----------|--------16----------|
--------------------|--17----------------|--17----------------|
--------------------|--------------------|--------------------|
--------------------|--------------------|--------------------|

Q     Q     Q        Q     Q     Q        Q     Q     Q
--------------14----|--------------14----|--------------14----|
--------------15----|--------------14----|--------15----------|
--------16----------|--------16----------|--16----------------|
--14----------------|--14----------------|--------------------|
--------------------|--------------------|--------------------|
--------------------|--------------------|--------------------|

Q     Q     Q        Q     Q     Q        Q     Q     Q
--------------14----|--------------14----|--------------14----|
--------15----------|--------15----------|--------15----------|
--16----------------|--14----------------|--14----------------|
--------------------|--------------------|--------------------|
--------------------|--------------------|--------------------|
--------------------|--------------------|--------------------|

Q     Q     Q        Q     Q     Q        Q     Q     Q
--------------14----|--------------14----|--------------14----|
--------------15----|--------------15----|--------------15----|
--------16----------|--------16----------|--------16----------|
--17----------------|--17----------------|--14----------------|
--------------------|--------------------|--------------------|
--------------------|--------------------|--------------------|

Q     Q     Q        Q     Q     Q        Q     Q     Q
--------------14----|--------------14----|--------------14----|
--------------14----|--------15----------|--------15----------|
--------16----------|--16----------------|--16----------------|
--14----------------|--------------------|--------------------|
--------------------|--------------------|--------------------|
--------------------|--------------------|--------------------|

Q     Q     Q        Q     Q     Q        Q     Q     Q
--------------14----|--------------14----|--------------14----|
--------15----------|--------15----------|--------12----14----|
--13----------------|--------------------|--14----------------|
--------------------|--14----------------|--------------------|
--------------------|--------------------|--------------------|
--------------------|--------------------|--------------------|

Q     Q     Q        Q     Q     Q        Q     Q     Q
--------------14----|--------------14----|--------------14----|
--------12----14----|--------14----------|--------14----------|
--14----------------|--15----------------|--15----------------|
--------------------|--------------------|--------------------|
--------------------|--------------------|--------------------|
--------------------|--------------------|--------------------|

E chord diagramEE  E chord diagramEE  E chord diagramEE  E chord diagramEE  E chord diagramEE  E chord diagramEE  E chord diagramEE  E chord diagramEE     E chord diagramEE  E chord diagramEE  E chord diagramEE  E chord diagramEE  E chord diagramEE  E chord diagramEE  E chord diagramEE  E chord diagramEE
--------------------------|--------------------------|
--------------------------|--------------------------|
--4--4--4--4--4--4--4--4--|--------------------------|
--4--4--4--4--4--4--4--4--|--5--5--5--5--5--5--5--5--|
--2--2--2--2--2--2--2--2--|--5--5--5--5--5--5--5--5--|
--------------------------|--5--5--5--5--5--5--5--5--|

E chord diagramEE  E chord diagramEE  E chord diagramEE  E chord diagramEE  E chord diagramEE  E chord diagramEE  E chord diagramEE  E chord diagramEE     E chord diagramEE  E chord diagramEE  E chord diagramEE  E chord diagramEE  E chord diagramEE  E chord diagramEE  E chord diagramEE  E chord diagramEE
--------------------------|--------------------------|
--------------------------|--------------------------|
--------------------------|--2--2--2--2--2--2--2--2--|
--0--0--0--0--0--0--0--0--|--2--2--2--2--2--2--2--2--|
--0--0--0--0--0--0--0--0--|--0--0--0--0--0--0--0--0--|
--0--0--0--0--0--0--0--0--|--------------------------|

E chord diagramEE  E chord diagramEE  E chord diagramEE  E chord diagramEE  E chord diagramEE  E chord diagramEE  E chord diagramEE  E chord diagramEE     E chord diagramEE  E chord diagramEE  E chord diagramEE  E chord diagramEE  E chord diagramEE  E chord diagramEE  E chord diagramEE  E chord diagramEE
--------------------------|--------------------------|
--------------------------|--------------------------|
--4--4--4--4--4--4--4--4--|--------------------------|
--4--4--4--4--4--4--4--4--|--5--5--5--5--5--5--5--5--|
--2--2--2--2--2--2--2--2--|--5--5--5--5--5--5--5--5--|
--------------------------|--5--5--5--5--5--5--5--5--|

E chord diagramEE  E chord diagramEE  E chord diagramEE  E chord diagramEE  E chord diagramEE  E chord diagramEE  E chord diagramEE  E chord diagramEE     E chord diagramEE  E chord diagramEE  E chord diagramEE  E chord diagramEE  E chord diagramEE  E chord diagramEE  E chord diagramEE  E chord diagramEE
--------------------------|--------------------------|
--------------------------|--------------------------|
--------------------------|--2--2--2--2--2--2--2--2--|
--2--2--2--2--2--2--2--2--|--2--2--2--2--2--2--2--2--|
--2--2--2--2--2--2--2--2--|--0--0--0--0--0--0--0--0--|
--2--2--2--2--2--2--2--2--|--------------------------|

E chord diagramEE  E chord diagramEE  E chord diagramEE  E chord diagramEE  E chord diagramEE  E chord diagramEE  E chord diagramEE  E chord diagramEE     E chord diagramEE  E chord diagramEE  E chord diagramEE  E chord diagramEE  E chord diagramEE  E chord diagramEE  E chord diagramEE  E chord diagramEE
--------------------------|--------------------------|
--------------------------|--------------------------|
--4--4--4--4--4--4--4--4--|--------------------------|
--4--4--4--4--4--4--4--4--|--5--5--5--5--5--5--5--5--|
--2--2--2--2--2--2--2--2--|--5--5--5--5--5--5--5--5--|
--------------------------|--5--5--5--5--5--5--5--5--|

E chord diagramEE  E chord diagramEE  E chord diagramEE  E chord diagramEE  E chord diagramEE  E chord diagramEE  E chord diagramEE  E chord diagramEE     E chord diagramEE  E chord diagramEE  E chord diagramEE  E chord diagramEE  E chord diagramEE  E chord diagramEE  E chord diagramEE  E chord diagramEE
--------------------------|--------------------------|
--------------------------|--------------------------|
--------------------------|--2--2--2--2--6--6--6--6--|
--0--0--0--0--0--0--0--0--|--2--2--2--2--6--6--6--6--|
--0--0--0--0--0--0--0--0--|--0--0--0--0--4--4--4--4--|
--0--0--0--0--0--0--0--0--|--------------------------|

E chord diagramEE  E chord diagramEE  E chord diagramEE  E chord diagramEE  E chord diagramEE  E chord diagramEE  E chord diagramEE  E chord diagramEE     E chord diagramEE  E chord diagramEE  E chord diagramEE  E chord diagramEE  E chord diagramEE  E chord diagramEE  E chord diagramEE  E chord diagramEE
--------------------------|--------------------------|
--------------------------|--------------------------|
--4--4--4--4--4--4--4--4--|--------------------------|
--4--4--4--4--4--4--4--4--|--5--5--5--5--5--5--5--5--|
--2--2--2--2--2--2--2--2--|--5--5--5--5--5--5--5--5--|
--------------------------|--5--5--5--5--5--5--5--5--|

PM PM
  E chord diagramEE  E chord diagramEE  E chord diagramEE  E chord diagramEE  E chord diagramEE  E chord diagramEE  E chord diagramEE  E chord diagramEE           Q    Q    E chord diagramEE  E chord diagramEE     Q    Q    Q
--------------------------|-----|------------------|-----------------|
--------------------------|-----|------------------|-----------------|
--------------------------|-----|------------------|-----------------|
--0--0--0--0--0--0--0--0--|-----|--4----4----2--4--|--5----5----2----|
--0--0--0--0--0--0--0--0--|-----|--4----4----2--4--|--5----5----2----|
--0--0--0--0--0--0--0--0--|-----|--4----4----2--4--|--5----5----2----|

PM PM                                         PM PM
  Q    Q    E chord diagramEE  E chord diagramEE     S S S S S S S S S S S S    Q    Q    E chord diagramEE  E chord diagramEE
------------------|----------------------6-9-|------------------|
------------------|------------------5-8-----|------------------|
------------------|------6-9-----6-9---------|------------------|
--4----4----2--4--|--5-8-----5-8-------------|--4----4----2--4--|
--4----4----2--4--|--------------------------|--4----4----2--4--|
--4----4----2--4--|--------------------------|--4----4----2--4--|

PM PM              PM PM
  Q    Q    E chord diagramEE  E chord diagramEE     Q    Q    E chord diagramEE  E chord diagramEE     S S S S S S S S S S S S
------------------|------------------|----------------------6-9-|----|----|----|
------------------|------------------|------------------5-8-----|----|----|----|
------------------|------------------|------6-9-----6-9---------|----|----|----|
--5----5----4--2--|--4----4----2--4--|--5-8-----5-8-------------|----|----|----|
--5----5----4--2--|--4----4----2--4--|--------------------------|----|----|----|
--5----5----4--2--|--4----4----2--4--|--------------------------|----|----|----|

----|----|----|----|----|----|----|----|----|----|----|----|----|
----|----|----|----|----|----|----|----|----|----|----|----|----|
----|----|----|----|----|----|----|----|----|----|----|----|----|
----|----|----|----|----|----|----|----|----|----|----|----|----|
----|----|----|----|----|----|----|----|----|----|----|----|----|
----|----|----|----|----|----|----|----|----|----|----|----|----|

E chord diagramEE   E chord diagramEE   E chord diagramEE   E chord diagramEE   E chord diagramEE   E chord diagramEE      H chord diagramHH        Q        E chord diagramEE   E chord diagramEE   E chord diagramEE   E chord diagramEE   E chord diagramEE   E chord diagramEE
--19--15------------------|-----------------|--------------------------|
----------17--------------|-----------------|------------------13--14--|
--------------16----------|-----------------|--14--13--14--16----------|
------------------17--16--|-----------------|--------------------------|
--------------------------|--19--------L----|--------------------------|
--------------------------|-----------------|--------------------------|

H chord diagramHH        Q        E chord diagramEE   E chord diagramEE   E chord diagramEE   E chord diagramEE   E chord diagramEE   E chord diagramEE      H chord diagramHH        Q
--12--------L----|--17--12------------------|-----------------|
-----------------|----------14--------------|-----------------|
-----------------|--------------14----------|-----------------|
-----------------|------------------14--12--|-----------------|
-----------------|--------------------------|--16--------L----|
-----------------|--------------------------|-----------------|

E chord diagramEE   E chord diagramEE   E chord diagramEE   E chord diagramEE   E chord diagramEE   E chord diagramEE           E chord diagramEE  E chord diagramEE  E chord diagramEE  E chord diagramEE  E chord diagramEE  E chord diagramEE  E chord diagramEE  E chord diagramEE
--------------------------|-----|--------------------------|
--------------------------|-----|--------------------------|
--18--16--15------15--16--|-----|--4--4--4--4--4--4--4--4--|
--------------16----------|-----|--4--4--4--4--4--4--4--4--|
--------------------------|-----|--2--2--2--2--2--2--2--2--|
--------------------------|-----|--------------------------|

E chord diagramEE  E chord diagramEE  E chord diagramEE  E chord diagramEE  E chord diagramEE  E chord diagramEE  E chord diagramEE  E chord diagramEE     E chord diagramEE  E chord diagramEE  E chord diagramEE  E chord diagramEE  E chord diagramEE  E chord diagramEE  E chord diagramEE  E chord diagramEE
--------------------------|--------------------------|
--------------------------|--------------------------|
--------------------------|--------------------------|
--5--5--5--5--5--5--5--5--|--0--0--0--0--0--0--0--0--|
--5--5--5--5--5--5--5--5--|--0--0--0--0--0--0--0--0--|
--5--5--5--5--5--5--5--5--|--0--0--0--0--0--0--0--0--|

E chord diagramEE  E chord diagramEE  E chord diagramEE  E chord diagramEE  E chord diagramEE  E chord diagramEE  E chord diagramEE  E chord diagramEE     E chord diagramEE  E chord diagramEE  E chord diagramEE  E chord diagramEE  E chord diagramEE  E chord diagramEE  E chord diagramEE  E chord diagramEE
--------------------------|--------------------------|
--------------------------|--------------------------|
--2--2--2--2--2--2--2--2--|--4--4--4--4--4--4--4--4--|
--2--2--2--2--2--2--2--2--|--4--4--4--4--4--4--4--4--|
--0--0--0--0--0--0--0--0--|--2--2--2--2--2--2--2--2--|
--------------------------|--------------------------|

E chord diagramEE  E chord diagramEE  E chord diagramEE  E chord diagramEE  E chord diagramEE  E chord diagramEE  E chord diagramEE  E chord diagramEE     E chord diagramEE  E chord diagramEE  E chord diagramEE  E chord diagramEE  E chord diagramEE  E chord diagramEE  E chord diagramEE  E chord diagramEE
--------------------------|--------------------------|
--------------------------|--------------------------|
--------------------------|--------------------------|
--5--5--5--5--5--5--5--5--|--2--2--2--2--2--2--2--2--|
--5--5--5--5--5--5--5--5--|--2--2--2--2--2--2--2--2--|
--5--5--5--5--5--5--5--5--|--2--2--2--2--2--2--2--2--|

E chord diagramEE  E chord diagramEE  E chord diagramEE  E chord diagramEE  E chord diagramEE  E chord diagramEE  E chord diagramEE  E chord diagramEE     E chord diagramEE  E chord diagramEE  E chord diagramEE  E chord diagramEE  E chord diagramEE  E chord diagramEE  E chord diagramEE  E chord diagramEE
--------------------------|--------------------------|
--------------------------|--------------------------|
--2--2--2--2--2--2--2--2--|--4--4--4--4--4--4--4--4--|
--2--2--2--2--2--2--2--2--|--4--4--4--4--4--4--4--4--|
--0--0--0--0--0--0--0--0--|--2--2--2--2--2--2--2--2--|
--------------------------|--------------------------|

E chord diagramEE  E chord diagramEE  E chord diagramEE  E chord diagramEE  E chord diagramEE  E chord diagramEE  E chord diagramEE  E chord diagramEE     E chord diagramEE  E chord diagramEE  E chord diagramEE  E chord diagramEE  E chord diagramEE  E chord diagramEE  E chord diagramEE  E chord diagramEE
--------------------------|--------------------------|
--------------------------|--------------------------|
--------------------------|--------------------------|
--5--5--5--5--5--5--5--5--|--0--0--0--0--0--0--0--0--|
--5--5--5--5--5--5--5--5--|--0--0--0--0--0--0--0--0--|
--5--5--5--5--5--5--5--5--|--0--0--0--0--0--0--0--0--|

E chord diagramEE  E chord diagramEE  E chord diagramEE  E chord diagramEE  E chord diagramEE  E chord diagramEE  E chord diagramEE  E chord diagramEE     E chord diagramEE  E chord diagramEE  E chord diagramEE  E chord diagramEE  E chord diagramEE  E chord diagramEE  E chord diagramEE  E chord diagramEE
--------------------------|--------------------------|
--------------------------|--------------------------|
--2--2--2--2--6--6--6--6--|--4--4--4--4--4--4--4--4--|
--2--2--2--2--6--6--6--6--|--4--4--4--4--4--4--4--4--|
--0--0--0--0--4--4--4--4--|--2--2--2--2--2--2--2--2--|
--------------------------|--------------------------|

E chord diagramEE  E chord diagramEE  E chord diagramEE  E chord diagramEE  E chord diagramEE  E chord diagramEE  E chord diagramEE  E chord diagramEE     E chord diagramEE  E chord diagramEE  E chord diagramEE  E chord diagramEE  E chord diagramEE  E chord diagramEE  E chord diagramEE  E chord diagramEE     H chord diagramHH        Q
--------------------------|--------------------------|-----------------|
--------------------------|--------------------------|-----------------|
--------------------------|--------------------------|-----------------|
--5--5--5--5--5--5--5--5--|--0--0--0--0--0--0--0--0--|--4--------L----|
--5--5--5--5--5--5--5--5--|--0--0--0--0--0--0--0--0--|--4--------L----|
--5--5--5--5--5--5--5--5--|--0--0--0--0--0--0--0--0--|--4--------L----|

PM PM                                PM PM
  Q    Q    E chord diagramEE  E chord diagramEE     Q    Q    Q       Q    Q    E chord diagramEE  E chord diagramEE
------------------|-----------------|------------------|
------------------|-----------------|------------------|
------------------|-----------------|------------------|
--4----4----2--4--|--5----5----2----|--4----4----2--4--|
--4----4----2--4--|--5----5----2----|--4----4----2--4--|
--4----4----2--4--|--5----5----2----|--4----4----2--4--|

PM PM PM PM PM PM PM PM PM PM PM PM              PM PM              PM PM
  S  S  S  S  S  S  S  S  S  S  S  S     Q    Q    E chord diagramEE  E chord diagramEE     Q    Q    E chord diagramEE  E chord diagramEE
--------------------------------------|------------------|------------------|
--------------------------------------|------------------|------------------|
--------------------------------------|------------------|------------------|
--------------------------------------|--4----4----2--4--|--5----5----2--4--|
--------2-----------------------------|--4----4----2--4--|--5----5----2--4--|
--2--4-----4--2--0--2--4--5--4--2--0--|--4----4----2--4--|--5----5----2--4--|

PM PM                                         PM PM
  Q    Q    E chord diagramEE  E chord diagramEE     S S S S S S S S S S S S    Q    Q    E chord diagramEE  E chord diagramEE
------------------|----------------------6-9-|------------------|
------------------|------------------5-8-----|------------------|
------------------|------6-9-----6-9---------|------------------|
--4----4----2--4--|--5-8-----5-8-------------|--4----4----2--4--|
--4----4----2--4--|--------------------------|--4----4----2--4--|
--4----4----2--4--|--------------------------|--4----4----2--4--|

PM PM    PM PM PM PM PM PM PM PM PM PM PM PM
  Q    Q    Q       Q    Q    E chord diagramEE  E chord diagramEE     S  S  S  S  S  S  S  S  S  S  S  S
-----------------|------------------|--------------------------------------|
-----------------|------------------|--------------------------------------|
-----------------|------------------|--------------------------------------|
--5----5----2----|--4----4----2--4--|--------------------------------------|
--5----5----2----|--4----4----2--4--|--------2-----------------------------|
--5----5----2----|--4----4----2--4--|--2--4-----4--2--0--2--4--5--4--2--0--|

PM PM              PM PM              PM PM
  Q    Q    E chord diagramEE  E chord diagramEE     Q    Q    E chord diagramEE  E chord diagramEE     Q    Q    E chord diagramEE  E chord diagramEE
------------------|------------------|------------------|
------------------|------------------|------------------|
------------------|------------------|------------------|
--4----4----2--4--|--5----5----2--4--|--4----4----2--4--|
--4----4----2--4--|--5----5----2--4--|--4----4----2--4--|
--4----4----2--4--|--5----5----2--4--|--4----4----2--4--|

PM PM PM PM PM PM PM PM PM PM PM PM
  S  S  S  S  S  S  S  S  S  S  S  S     Q    H chord diagramHH
--------------------------------------|-----------------|-----------||
--------------------------------------|-----------------|-----------||
--------------------------------------|-----------------|-----------||
--------------------------------------|--4----L--------|-----------||
--------2-----------------------------|--4----L--------|-----------||
--2--4-----4--2--0--2--4--5--4--2--0--|--4----L--------|-----------||

Guitar 2

Starts at (00:42)

H chord diagramHH        Q       H chord diagramHH        Q        H chord diagramHH        Q
-------|-------|-------|-----------------|----------------|-----------------|
-------|-------|-------|-----------------|----------------|-----------------|
-------|-------|-------|-----------------|----------------|-----------------|
-------|-------|-------|--12--------L----|--L--------L----|--11--------L----|
-------|-------|-------|-----------------|----------------|-----------------|
-------|-------|-------|-----------------|----------------|-----------------|

H chord diagramHH        Q       H chord diagramHH        Q       H chord diagramHH        Q       H chord diagramHH        Q
----------------|----------------|----------------|----------------|
----------------|----------------|----------------|----------------|
----------------|----------------|----------------|----------------|
--L--------L----|--9--------L----|--L--------L----|--L--------L----|
----------------|----------------|----------------|----------------|
----------------|----------------|----------------|----------------|

H chord diagramHH        Q       H chord diagramHH        Q       H chord diagramHH        Q       H chord diagramHH        Q
-----------------|----------------|----------------|----------------|
-----------------|----------------|----------------|----------------|
-----------------|----------------|----------------|----------------|
--11--------L----|--9--------L----|--L--------L----|--L--------L----|
-----------------|----------------|----------------|----------------|
-----------------|----------------|----------------|----------------|

H chord diagramHH        Q        H chord diagramHH        Q       H chord diagramHH        Q       H chord diagramHH        Q
----------------|-----------------|----------------|----------------|
----------------|-----------------|----------------|----------------|
----------------|-----------------|----------------|----------------|
--L--------L----|--11--------L----|--L--------L----|--L--------L----|
----------------|-----------------|----------------|----------------|
----------------|-----------------|----------------|----------------|

H chord diagramHH        Q       E chord diagramEE  E chord diagramEE  E chord diagramEE  E chord diagramEE  E chord diagramEE  E chord diagramEE  E chord diagramEE  E chord diagramEE     E chord diagramEE  E chord diagramEE  E chord diagramEE  E chord diagramEE  E chord diagramEE  E chord diagramEE  E chord diagramEE  E chord diagramEE
----------------|--------------------------|--------------------------|
----------------|--7--7--7--7--7--7--7--7--|--8--8--8--8--8--8--8--8--|
----------------|--x--x--x--x--x--x--x--x--|--x--x--x--x--x--x--x--x--|
--L--------L----|--4--4--4--4--4--4--4--4--|--5--5--5--5--5--5--5--5--|
----------------|--------------------------|--------------------------|
----------------|--------------------------|--------------------------|

E chord diagramEE  E chord diagramEE  E chord diagramEE  E chord diagramEE  E chord diagramEE  E chord diagramEE  E chord diagramEE  E chord diagramEE     E chord diagramEE  E chord diagramEE  E chord diagramEE  E chord diagramEE  E chord diagramEE  E chord diagramEE  E chord diagramEE  E chord diagramEE
--------------------------|--------------------------|
--7--7--7--7--7--7--7--7--|--------------------------|
--x--x--x--x--x--x--x--x--|--9--9--9--9--9--9--9--9--|
--4--4--4--4--4--4--4--4--|--x--x--x--x--x--x--x--x--|
--------------------------|--7--7--7--7--7--7--7--7--|
--------------------------|--------------------------|

E chord diagramEE  E chord diagramEE  E chord diagramEE  E chord diagramEE  E chord diagramEE  E chord diagramEE  E chord diagramEE  E chord diagramEE     E chord diagramEE  E chord diagramEE  E chord diagramEE  E chord diagramEE  E chord diagramEE  E chord diagramEE  E chord diagramEE  E chord diagramEE
--------------------------|--------------------------|
--7--7--7--7--7--7--7--7--|--8--8--8--8--8--8--8--8--|
--x--x--x--x--x--x--x--x--|--x--x--x--x--x--x--x--x--|
--4--4--4--4--4--4--4--4--|--5--5--5--5--5--5--5--5--|
--------------------------|--------------------------|
--------------------------|--------------------------|

E chord diagramEE  E chord diagramEE  E chord diagramEE  E chord diagramEE  E chord diagramEE  E chord diagramEE  E chord diagramEE  E chord diagramEE      E chord diagramEE   E chord diagramEE   E chord diagramEE   E chord diagramEE   E chord diagramEE   E chord diagramEE   E chord diagramEE   E chord diagramEE
--------------------------|----------------------------------|
--------------------------|--10--10--10--10--10--10--10--10--|
--9--9--9--9--9--9--9--9--|---x---x---x---x---x---x---x---x--|
--x--x--x--x--x--x--x--x--|---7---7---7---7---7---7---7---7--|
--7--7--7--7--7--7--7--7--|----------------------------------|
--------------------------|----------------------------------|

E chord diagramEE   E chord diagramEE   E chord diagramEE   E chord diagramEE   E chord diagramEE   E chord diagramEE   E chord diagramEE   E chord diagramEE      E chord diagramEE   E chord diagramEE   E chord diagramEE   E chord diagramEE   E chord diagramEE   E chord diagramEE   E chord diagramEE  E chord diagramEE
----------------------------------|---------------------------------|
--15--15--15--15--15--14--14--12--|--12--12--12--12--12--10--10--8--|
---x---x---x---x---x---x---x---x--|---x---x---x---x---x---x---x--x--|
--12--12--12--12--12--11--11---9--|---9---9---9---9---9---7---7--5--|
----------------------------------|---------------------------------|
----------------------------------|---------------------------------|

E chord diagramEE  E chord diagramEE  E chord diagramEE  E chord diagramEE  E chord diagramEE  E chord diagramEE  E chord diagramEE  E chord diagramEE      E chord diagramEE   E chord diagramEE   E chord diagramEE  E chord diagramEE  E chord diagramEE  E chord diagramEE  E chord diagramEE  E chord diagramEE
--------------------------|-----------------------------|
--7--7--7--7--7--8--8--7--|--10--10--10-----------------|
--x--x--x--x--x--x--x--x--|---x---x---x--7--6--6--6--6--|
--4--4--4--4--4--5--5--4--|---7---7---7--x--x--x--x--x--|
--------------------------|--------------5--4--4--4--4--|
--------------------------|-----------------------------|

E chord diagramEE  E chord diagramEE  E chord diagramEE  E chord diagramEE  E chord diagramEE  E chord diagramEE  E chord diagramEE  E chord diagramEE     E chord diagramEE  E chord diagramEE  E chord diagramEE  E chord diagramEE  E chord diagramEE  E chord diagramEE  E chord diagramEE  E chord diagramEE
--------------------------|--------------------------|
--7--7--7--7--7--7--7--7--|--8--8--8--8--8--8--8--8--|
--x--x--x--x--x--x--x--x--|--x--x--x--x--x--x--x--x--|
--4--4--4--4--4--4--4--4--|--5--5--5--5--5--5--5--5--|
--------------------------|--------------------------|
--------------------------|--------------------------|

E chord diagramEE  E chord diagramEE  E chord diagramEE  E chord diagramEE  E chord diagramEE  E chord diagramEE  E chord diagramEE  E chord diagramEE     H chord diagramHH        Q
--------------------------|----------------|-------|-------|-------|-------|
--7--7--7--7--7--7--7--7--|----------------|-------|-------|-------|-------|
--x--x--x--x--x--x--x--x--|--9--------L----|-------|-------|-------|-------|
--4--4--4--4--4--4--4--4--|--x-------------|-------|-------|-------|-------|
--------------------------|--7--------L----|-------|-------|-------|-------|
--------------------------|----------------|-------|-------|-------|-------|

-------|-------|-------|-------|-------|-------|-------|-------|-------|-------|
-------|-------|-------|-------|-------|-------|-------|-------|-------|-------|
-------|-------|-------|-------|-------|-------|-------|-------|-------|-------|
-------|-------|-------|-------|-------|-------|-------|-------|-------|-------|
-------|-------|-------|-------|-------|-------|-------|-------|-------|-------|
-------|-------|-------|-------|-------|-------|-------|-------|-------|-------|

-------|-------|-------|-------|-------|-------|-------|-------|-------|-------|
-------|-------|-------|-------|-------|-------|-------|-------|-------|-------|
-------|-------|-------|-------|-------|-------|-------|-------|-------|-------|
-------|-------|-------|-------|-------|-------|-------|-------|-------|-------|
-------|-------|-------|-------|-------|-------|-------|-------|-------|-------|
-------|-------|-------|-------|-------|-------|-------|-------|-------|-------|

-------|-------|-------|-------|-------|-------|-------|-------|-------|-------|
-------|-------|-------|-------|-------|-------|-------|-------|-------|-------|
-------|-------|-------|-------|-------|-------|-------|-------|-------|-------|
-------|-------|-------|-------|-------|-------|-------|-------|-------|-------|
-------|-------|-------|-------|-------|-------|-------|-------|-------|-------|
-------|-------|-------|-------|-------|-------|-------|-------|-------|-------|

PM PM PM PM PM PM
                                  E chord diagramEE  E chord diagramEE  E chord diagramEE  E chord diagramEE  E chord diagramEE  E chord diagramEE     E chord diagramEE  E chord diagramEE  E chord diagramEE  E chord diagramEE  E chord diagramEE  E chord diagramEE
-------|-------|-------|-------|--------------------|--------------------|
-------|-------|-------|-------|--------------------|--------------------|
-------|-------|-------|-------|--3--3--3--3--3--3--|--3--3--3--3--3--3--|
-------|-------|-------|-------|--3--3--3--3--3--3--|--3--3--3--3--3--3--|
-------|-------|-------|-------|--1--1--1--1--1--1--|--1--1--1--1--1--1--|
-------|-------|-------|-------|--------------------|--------------------|

E chord diagramEE  E chord diagramEE  E chord diagramEE  E chord diagramEE  E chord diagramEE  E chord diagramEE  E chord diagramEE  E chord diagramEE     E chord diagramEE  E chord diagramEE  E chord diagramEE  E chord diagramEE  E chord diagramEE  E chord diagramEE  E chord diagramEE  E chord diagramEE
--------------------------|--------------------------|
--7--7--7--7--7--7--7--7--|--8--8--8--8--8--8--8--8--|
--x--x--x--x--x--x--x--x--|--x--x--x--x--x--x--x--x--|
--4--4--4--4--4--4--4--4--|--5--5--5--5--5--5--5--5--|
--------------------------|--------------------------|
--------------------------|--------------------------|

E chord diagramEE  E chord diagramEE  E chord diagramEE  E chord diagramEE  E chord diagramEE  E chord diagramEE  E chord diagramEE  E chord diagramEE     E chord diagramEE  E chord diagramEE  E chord diagramEE  E chord diagramEE  E chord diagramEE  E chord diagramEE  E chord diagramEE  E chord diagramEE
--------------------------|--------------------------|
--7--7--7--7--7--7--7--7--|--------------------------|
--x--x--x--x--x--x--x--x--|--9--9--9--9--9--9--9--9--|
--4--4--4--4--4--4--4--4--|--x--x--x--x--x--x--x--x--|
--------------------------|--7--7--7--7--7--7--7--7--|
--------------------------|--------------------------|

E chord diagramEE  E chord diagramEE  E chord diagramEE  E chord diagramEE  E chord diagramEE  E chord diagramEE  E chord diagramEE  E chord diagramEE     E chord diagramEE  E chord diagramEE  E chord diagramEE  E chord diagramEE  E chord diagramEE  E chord diagramEE  E chord diagramEE  E chord diagramEE
--------------------------|--------------------------|
--7--7--7--7--7--7--7--7--|--8--8--8--8--8--8--8--8--|
--x--x--x--x--x--x--x--x--|--x--x--x--x--x--x--x--x--|
--4--4--4--4--4--4--4--4--|--5--5--5--5--5--5--5--5--|
--------------------------|--------------------------|
--------------------------|--------------------------|

E chord diagramEE  E chord diagramEE  E chord diagramEE  E chord diagramEE  E chord diagramEE  E chord diagramEE  E chord diagramEE  E chord diagramEE      E chord diagramEE   E chord diagramEE   E chord diagramEE   E chord diagramEE   E chord diagramEE   E chord diagramEE   E chord diagramEE   E chord diagramEE
--------------------------|----------------------------------|
--------------------------|--10--10--10--10--10--10--10--10--|
--9--9--9--9--9--9--9--9--|---x---x---x---x---x---x---x---x--|
--x--x--x--x--x--x--x--x--|---7---7---7---7---7---7---7---7--|
--7--7--7--7--7--7--7--7--|----------------------------------|
--------------------------|----------------------------------|

E chord diagramEE   E chord diagramEE   E chord diagramEE   E chord diagramEE   E chord diagramEE   E chord diagramEE   E chord diagramEE   E chord diagramEE      E chord diagramEE   E chord diagramEE   E chord diagramEE   E chord diagramEE   E chord diagramEE   E chord diagramEE   E chord diagramEE  E chord diagramEE
----------------------------------|---------------------------------|
--15--15--15--15--15--14--14--12--|--12--12--12--12--12--10--10--8--|
---x---x---x---x---x---x---x---x--|---x---x---x---x---x---x---x--x--|
--12--12--12--12--12--11--11---9--|---9---9---9---9---9---7---7--5--|
----------------------------------|---------------------------------|
----------------------------------|---------------------------------|

E chord diagramEE  E chord diagramEE  E chord diagramEE  E chord diagramEE  E chord diagramEE  E chord diagramEE  E chord diagramEE  E chord diagramEE      E chord diagramEE   E chord diagramEE   E chord diagramEE  E chord diagramEE  E chord diagramEE  E chord diagramEE  E chord diagramEE  E chord diagramEE
--------------------------|-----------------------------|
--7--7--7--7--7--8--8--7--|--10--10--10-----------------|
--x--x--x--x--x--x--x--x--|---x---x---x--7--6--6--6--6--|
--4--4--4--4--4--5--5--4--|---7---7---7--x--x--x--x--x--|
--------------------------|--------------5--4--4--4--4--|
--------------------------|-----------------------------|

E chord diagramEE  E chord diagramEE  E chord diagramEE  E chord diagramEE  E chord diagramEE  E chord diagramEE  E chord diagramEE  E chord diagramEE     E chord diagramEE  E chord diagramEE  E chord diagramEE  E chord diagramEE  E chord diagramEE  E chord diagramEE  E chord diagramEE  E chord diagramEE
--------------------------|--------------------------|
--7--7--7--7--7--7--7--7--|--8--8--8--8--8--8--8--8--|
--x--x--x--x--x--x--x--x--|--x--x--x--x--x--x--x--x--|
--4--4--4--4--4--4--4--4--|--5--5--5--5--5--5--5--5--|
--------------------------|--------------------------|
--------------------------|--------------------------|

PM PM
  E chord diagramEE  E chord diagramEE  E chord diagramEE  E chord diagramEE  E chord diagramEE  E chord diagramEE  E chord diagramEE  E chord diagramEE           Q    Q    E chord diagramEE  E chord diagramEE     Q    Q    Q
--------------------------|-----|------------------|-----------------|
--7--7--7--7--7--7--7--7--|-----|------------------|-----------------|
--x--x--x--x--x--x--x--x--|-----|------------------|-----------------|
--4--4--4--4--4--4--4--4--|-----|--4----4----2--4--|--5----5----2----|
--------------------------|-----|--4----4----2--4--|--5----5----2----|
--------------------------|-----|--4----4----2--4--|--5----5----2----|

PM PM                                              PM PM
  Q    Q    E chord diagramEE  E chord diagramEE     S  S S  S S  S S  S S S S  S    Q    Q    E chord diagramEE  E chord diagramEE
------------------|-------------------------------|------------------|
------------------|--------------------------8-11-|------------------|
------------------|----------------------6-9------|------------------|
--4----4----2--4--|-------8-11------8-11----------|--4----4----2--4--|
--4----4----2--4--|--7-10------7-10---------------|--4----4----2--4--|
--4----4----2--4--|-------------------------------|--4----4----2--4--|

PM PM              PM PM
  Q    Q    E chord diagramEE  E chord diagramEE     Q    Q    E chord diagramEE  E chord diagramEE     S  S S  S S  S S  S S S S  S
------------------|------------------|-------------------------------|
------------------|------------------|--------------------------8-11-|
------------------|------------------|----------------------6-9------|
--5----5----4--2--|--4----4----2--4--|-------8-11------8-11----------|
--5----5----4--2--|--4----4----2--4--|--7-10------7-10---------------|
--5----5----4--2--|--4----4----2--4--|-------------------------------|

H chord diagramHH        Q        E chord diagramEE   E chord diagramEE   E chord diagramEE   E chord diagramEE   E chord diagramEE   E chord diagramEE      H chord diagramHH        Q
-----------------|----------------------10--|--14--------L----|
--12--------L----|--12--------------12------|-----------------|
-----------------|------11------11----------|-----------------|
-----------------|----------12--------------|-----------------|
-----------------|--------------------------|-----------------|
-----------------|--------------------------|-----------------|

E chord diagramEE   E chord diagramEE   E chord diagramEE    E chord diagramEE   E chord diagramEE   E chord diagramEE      H chord diagramHH         Q        H chord diagramHH         E chord diagramEE   E chord diagramEE
--17--15--14b--14--12--14--|--14b--------L----|--14--------12--14--|
---------------------------|------------------|--------------------|
---------------------------|------------------|--------------------|
---------------------------|------------------|--------------------|
---------------------------|------------------|--------------------|
---------------------------|------------------|--------------------|

|---3---|                                                      |---3---|
   E chord diagramEE   E chord diagramEE   E chord diagramEE   S  S  S  S  S  S  S  S     S  S  S  S  S  S  S  S  E chord diagramEE   E chord diagramEE   E chord diagramEE
--15--14--12--14-12----12-------------|--------------------------------------|
--------------------15----15-14-15-14-|--12-14-12----12----------------------|
--------------------------------------|-----------14----14-12-11-------------|
--------------------------------------|--------------------------14--12--14--|
--------------------------------------|--------------------------------------|
--------------------------------------|--------------------------------------|

H chord diagramHH         E chord diagramEE   E chord diagramEE      E chord diagramEE   E chord diagramEE   E chord diagramEE   E chord diagramEE   E chord diagramEE   E chord diagramEE     E chord diagramEE   E chord diagramEE   E chord diagramEE   E chord diagramEE  E chord diagramEE   E chord diagramEE
--------------------|----------------------10--|--9---------------------|
--------------------|--12--------------12------|-----10------10---------|
--11------------11--|------11------11----------|---------11------9--11--|
------------12------|----------12--------------|------------------------|
--------------------|--------------------------|------------------------|
--------------------|--------------------------|------------------------|

|--3--|                   |--3--|
   E chord diagramEE  E chord diagramEE   E chord diagramEE  E chord diagramEE   E chord diagramEE   E chord diagramEE      H chord diagramHH        E chord diagramEE   S  S  S     H chord diagramHH         E chord diagramEE   S  S  S
------9--10--9--10--12--|--10--------L-----------|--14---------------------|
--10--------------------|---------------14-15-17-|------------15--15-17-19-|
------------------------|------------------------|-------------------------|
------------------------|------------------------|-------------------------|
------------------------|------------------------|-------------------------|
------------------------|------------------------|-------------------------|

|--3--|
   H chord diagramHH         E chord diagramEE   E chord diagramEE      S  S  S  S  S  S  S  S  S  S  S  E chord diagramEE      H chord diagramHH        Q
--15------------15--|--19-15-------------------------15-19--|--22--------L----|
------------17------|--------17-------------------17--------|-----------------|
--------------------|-----------16-------------16-----------|-----------------|
--------------------|--------------17-------17--------------|-----------------|
--------------------|-----------------19-19-----------------|-----------------|
--------------------|---------------------------------------|-----------------|

E chord diagramEE   E chord diagramEE   E chord diagramEE   E chord diagramEE   E chord diagramEE   E chord diagramEE      H chord diagramHH        Q        E chord diagramEE   E chord diagramEE   E chord diagramEE   E chord diagramEE   E chord diagramEE   E chord diagramEE
--15--10------------------|-----------------|--------------------------|
----------12--------------|-----------------|----------------------13--|
--------------12----------|-----------------|--14--13--14--15--16------|
------------------14--12--|--11--------L----|--------------------------|
--------------------------|-----------------|--------------------------|
--------------------------|-----------------|--------------------------|

PM  PM
   H chord diagramHH        Q        Q     E chord diagramEE   E chord diagramEE   E chord diagramEE   E chord diagramEE      H chord diagramHH         Q
-----------------|------------------------|--14--------------|-------|
--14--------L----|--------------------13--|------------14----|-------|
-----------------|--14------------14------|------------------|-------|
-----------------|--------11--------------|------------------|-------|
-----------------|------------------------|------------------|-------|
-----------------|------------14----------|------------------|-------|

E chord diagramEE  E chord diagramEE  E chord diagramEE  E chord diagramEE  E chord diagramEE  E chord diagramEE  E chord diagramEE  E chord diagramEE     E chord diagramEE  E chord diagramEE  E chord diagramEE  E chord diagramEE  E chord diagramEE  E chord diagramEE  E chord diagramEE  E chord diagramEE
--------------------------|--------------------------|
--7--7--7--7--7--7--7--7--|--8--8--8--8--8--8--8--8--|
--x--x--x--x--x--x--x--x--|--x--x--x--x--x--x--x--x--|
--4--4--4--4--4--4--4--4--|--5--5--5--5--5--5--5--5--|
--------------------------|--------------------------|
--------------------------|--------------------------|

E chord diagramEE  E chord diagramEE  E chord diagramEE  E chord diagramEE  E chord diagramEE  E chord diagramEE  E chord diagramEE  E chord diagramEE     E chord diagramEE  E chord diagramEE  E chord diagramEE  E chord diagramEE  E chord diagramEE  E chord diagramEE  E chord diagramEE  E chord diagramEE
--------------------------|--------------------------|
--7--7--7--7--7--7--7--7--|--------------------------|
--x--x--x--x--x--x--x--x--|--9--9--9--9--9--9--9--9--|
--4--4--4--4--4--4--4--4--|--x--x--x--x--x--x--x--x--|
--------------------------|--7--7--7--7--7--7--7--7--|
--------------------------|--------------------------|

E chord diagramEE  E chord diagramEE  E chord diagramEE  E chord diagramEE  E chord diagramEE  E chord diagramEE  E chord diagramEE  E chord diagramEE     E chord diagramEE  E chord diagramEE  E chord diagramEE  E chord diagramEE  E chord diagramEE  E chord diagramEE  E chord diagramEE  E chord diagramEE
--------------------------|--------------------------|
--7--7--7--7--7--7--7--7--|--8--8--8--8--8--8--8--8--|
--x--x--x--x--x--x--x--x--|--x--x--x--x--x--x--x--x--|
--4--4--4--4--4--4--4--4--|--5--5--5--5--5--5--5--5--|
--------------------------|--------------------------|
--------------------------|--------------------------|

E chord diagramEE  E chord diagramEE  E chord diagramEE  E chord diagramEE  E chord diagramEE  E chord diagramEE  E chord diagramEE  E chord diagramEE      E chord diagramEE   E chord diagramEE   E chord diagramEE   E chord diagramEE   E chord diagramEE   E chord diagramEE   E chord diagramEE   E chord diagramEE
--------------------------|----------------------------------|
--------------------------|--10--10--10--10--10--10--10--10--|
--9--9--9--9--9--9--9--9--|---x---x---x---x---x---x---x---x--|
--x--x--x--x--x--x--x--x--|---7---7---7---7---7---7---7---7--|
--7--7--7--7--7--7--7--7--|----------------------------------|
--------------------------|----------------------------------|

E chord diagramEE   E chord diagramEE   E chord diagramEE   E chord diagramEE   E chord diagramEE   E chord diagramEE   E chord diagramEE   E chord diagramEE      E chord diagramEE   E chord diagramEE   E chord diagramEE   E chord diagramEE   E chord diagramEE   E chord diagramEE   E chord diagramEE  E chord diagramEE
----------------------------------|---------------------------------|
--15--15--15--15--15--14--14--12--|--12--12--12--12--12--10--10--8--|
---x---x---x---x---x---x---x---x--|---x---x---x---x---x---x---x--x--|
--12--12--12--12--12--11--11---9--|---9---9---9---9---9---7---7--5--|
----------------------------------|---------------------------------|
----------------------------------|---------------------------------|

E chord diagramEE  E chord diagramEE  E chord diagramEE  E chord diagramEE  E chord diagramEE  E chord diagramEE  E chord diagramEE  E chord diagramEE      E chord diagramEE   E chord diagramEE   E chord diagramEE  E chord diagramEE  E chord diagramEE  E chord diagramEE  E chord diagramEE  E chord diagramEE
--------------------------|-----------------------------|
--7--7--7--7--7--8--8--7--|--10--10--10-----------------|
--x--x--x--x--x--x--x--x--|---x---x---x--7--6--6--6--6--|
--4--4--4--4--4--5--5--4--|---7---7---7--x--x--x--x--x--|
--------------------------|--------------5--4--4--4--4--|
--------------------------|-----------------------------|

E chord diagramEE  E chord diagramEE  E chord diagramEE  E chord diagramEE  E chord diagramEE  E chord diagramEE  E chord diagramEE  E chord diagramEE     E chord diagramEE  E chord diagramEE  E chord diagramEE  E chord diagramEE  E chord diagramEE  E chord diagramEE  E chord diagramEE  E chord diagramEE
--------------------------|--------------------------|
--7--7--7--7--7--7--7--7--|--8--8--8--8--8--8--8--8--|
--x--x--x--x--x--x--x--x--|--x--x--x--x--x--x--x--x--|
--4--4--4--4--4--4--4--4--|--5--5--5--5--5--5--5--5--|
--------------------------|--------------------------|
--------------------------|--------------------------|

PM PM
  E chord diagramEE  E chord diagramEE  E chord diagramEE  E chord diagramEE  E chord diagramEE  E chord diagramEE  E chord diagramEE  E chord diagramEE     H chord diagramHH        Q        Q    Q    E chord diagramEE  E chord diagramEE
--------------------------|-----------------|------------------|
--7--7--7--7--7--7--7--7--|-----------------|------------------|
--x--x--x--x--x--x--x--x--|--9--------L----|------------------|
--4--4--4--4--4--4--4--4--|--x--------------|--4----4----2--4--|
--------------------------|--7--------L----|--4----4----2--4--|
--------------------------|-----------------|--4----4----2--4--|

PM PM    PM PM PM PM PM PM PM PM PM PM PM PM
  Q    Q    Q       Q    Q    E chord diagramEE  E chord diagramEE     S  S  S  S  S  S  S  S  S  S  S  S
-----------------|------------------|--------------------------------------|
-----------------|------------------|--------------------------------------|
-----------------|------------------|--------------------------------------|
--5----5----2----|--4----4----2--4--|--------------------------------------|
--5----5----2----|--4----4----2--4--|--------2-----------------------------|
--5----5----2----|--4----4----2--4--|--2--4-----4--2--0--2--4--5--4--2--0--|

PM PM              PM PM              PM PM
  Q    Q    E chord diagramEE  E chord diagramEE     Q    Q    E chord diagramEE  E chord diagramEE     Q    Q    E chord diagramEE  E chord diagramEE
------------------|------------------|------------------|
------------------|------------------|------------------|
------------------|------------------|------------------|
--4----4----2--4--|--5----5----2--4--|--4----4----2--4--|
--4----4----2--4--|--5----5----2--4--|--4----4----2--4--|
--4----4----2--4--|--5----5----2--4--|--4----4----2--4--|

S  S S  S S  S S  S S S S  S    S  S S  S  S  S  S  S  S  S  S  S
-------------------------------|------------------------------------|
--------------------------8-11-|------------11-12-11----11-14-11----|
----------------------6-9------|-------9-12----------12----------12-|
-------8-11------8-11----------|--8-11------------------------------|
--7-10------7-10---------------|------------------------------------|
-------------------------------|------------------------------------|

S  S  S  S  S  S  S  S  S  S  S S
-------------------------------------|
--11-12-11----12-11-10----10---------|
-----------12----------12----12-11-9-|
-------------------------------------|
-------------------------------------|
-------------------------------------|

|--3--|        |--3--|  |--3--|
   S  S S  S  S  S  S  S  S  S  S  S  S  S  S
-------------12-14-15-14-12-15-14-12----------|
-------------------------------------14-12-11-|
--12-11-9-------------------------------------|
----------12----------------------------------|
----------------------------------------------|
----------------------------------------------|

|--3--|        |--3--|  |--3--|
   S  S  S  S  S  S  S  S  S  S  S  E chord diagramEE  E chord diagramEE
--------------------------12-14-15-18--L--|
-----------------11-12-14------------------|
--14-12-11-12-14---------------------------|
-------------------------------------------|
-------------------------------------------|
-------------------------------------------|

T           T           T
   S  S  S  S  S  S  S  S  S  S  S  S
--------------------------------------|
--20-17-14-17-19-17-14-17-17-14-11-14-|
--------------------------------------|
--------------------------------------|
--------------------------------------|
--------------------------------------|

T
               |--3--|        |--3--|  |--3--|
   S  S  S  S  S  S  S  S  S  S  S  S  S  S  S
--------------14-15-17-15-14-17-15-14-15-14-12-|
--15-14-11-14----------------------------------|
-----------------------------------------------|
-----------------------------------------------|
-----------------------------------------------|
-----------------------------------------------|

|--3--|        |--3--|  |--3--|        |--3--|
   S  S  S  S  S  S  S  S  S  S  S  S  S  S  S  S
-----------------12-14-15-14-15-17-15-14-17-15-14-|
--15-14-12-14-15----------------------------------|
--------------------------------------------------|
--------------------------------------------------|
--------------------------------------------------|
--------------------------------------------------|

S  S  S  S  S  S  S  S  S  S  S  S    Q    H chord diagramHH
--15-14-12----------------------------|-----------------|----||
-----------15-14-12-------------------|-----------------|----||
--------------------14-13-11----------|-----------------|----||
-----------------------------14-13-11-|--4----L--------|----||
--------------------------------------|--4----L--------|----||
--------------------------------------|--4----L--------|----||

Guitar 3

Starts at (01:31)

Q    E chord diagramEE  E chord diagramEE  E chord diagramEE  E chord diagramEE     Q    E chord diagramEE  E chord diagramEE  E chord diagramEE  E chord diagramEE
-------|-------|-------|-------|-------|--0----0--0--0--0--|--0----0--0--0--0--|
-------|-------|-------|-------|-------|--0----0--0--0--0--|--0----0--0--0--0--|
-------|-------|-------|-------|-------|--2----2--2--2--2--|--2----2--2--2--2--|
-------|-------|-------|-------|-------|--2----2--2--2--2--|--2----2--2--2--2--|
-------|-------|-------|-------|-------|--0----0--0--0--0--|--0----0--0--0--0--|
-------|-------|-------|-------|-------|-------------------|-------------------|

Q    E chord diagramEE  E chord diagramEE  E chord diagramEE  E chord diagramEE     Q    E chord diagramEE  E chord diagramEE  E chord diagramEE  E chord diagramEE     Q    E chord diagramEE  E chord diagramEE  E chord diagramEE  E chord diagramEE     Q    E chord diagramEE  E chord diagramEE  E chord diagramEE  E chord diagramEE
--3----3--3--3--3--|--3----3--3--3--3--|--0----0--0--0--0--|--0----0--0--0--0--|
--0----0--0--0--0--|--0----0--0--0--0--|--1----1--1--1--1--|--1----1--1--1--1--|
--0----0--0--0--0--|--0----0--0--0--0--|--0----0--0--0--0--|--0----0--0--0--0--|
--0----0--0--0--0--|--0----0--0--0--0--|--2----2--2--2--2--|--2----2--2--2--2--|
--2----2--2--2--2--|--2----2--2--2--2--|--3----3--3--3--3--|--3----3--3--3--3--|
--3----3--3--3--3--|--3----3--3--3--3--|-------------------|-------------------|

Q    E chord diagramEE  E chord diagramEE  E chord diagramEE  E chord diagramEE     Q    E chord diagramEE  E chord diagramEE  E chord diagramEE  E chord diagramEE     Q    E chord diagramEE  E chord diagramEE  E chord diagramEE  E chord diagramEE     Q    E chord diagramEE  E chord diagramEE  E chord diagramEE  E chord diagramEE
--0----0--0--0--0--|--3----3--3--3--3--|--0----0--0--0--0--|--0----0--0--0--0--|
--3----3--3--3--3--|--0----0--0--0--0--|--0----0--0--0--0--|--0----0--0--0--0--|
--2----2--2--2--2--|--0----0--0--0--0--|--2----2--2--2--2--|--2----2--2--2--2--|
--0----0--0--0--0--|--0----0--0--0--0--|--2----2--2--2--2--|--2----2--2--2--2--|
--0----0--0--0--0--|--2----2--2--2--2--|--0----0--0--0--0--|--0----0--0--0--0--|
-------------------|--3----3--3--3--3--|-------------------|-------------------|

Q    E chord diagramEE  E chord diagramEE  E chord diagramEE  E chord diagramEE     Q    E chord diagramEE  E chord diagramEE  E chord diagramEE  E chord diagramEE     Q    E chord diagramEE  E chord diagramEE  E chord diagramEE  E chord diagramEE     Q    E chord diagramEE  E chord diagramEE  E chord diagramEE  E chord diagramEE
--3----3--3--3--3--|--3----3--3--3--3--|--0----0--0--0--0--|--0----0--0--0--0--|
--0----0--0--0--0--|--0----0--0--0--0--|--1----1--1--1--1--|--1----1--1--1--1--|
--0----0--0--0--0--|--0----0--0--0--0--|--0----0--0--0--0--|--0----0--0--0--0--|
--0----0--0--0--0--|--0----0--0--0--0--|--2----2--2--2--2--|--2----2--2--2--2--|
--2----2--2--2--2--|--2----2--2--2--2--|--3----3--3--3--3--|--3----3--3--3--3--|
--3----3--3--3--3--|--3----3--3--3--3--|-------------------|-------------------|

Q    E chord diagramEE  E chord diagramEE  E chord diagramEE  E chord diagramEE     Q    E chord diagramEE  E chord diagramEE  E chord diagramEE  E chord diagramEE     Q    E chord diagramEE  E chord diagramEE  E chord diagramEE  E chord diagramEE     Q    E chord diagramEE  E chord diagramEE  E chord diagramEE  E chord diagramEE
--0----0--0--0--0--|--3----3--3--3--3--|--0----0--0--0--0--|--0----0--0--0--0--|
--3----3--3--3--3--|--0----0--0--0--0--|--0----0--0--0--0--|--0----0--0--0--0--|
--2----2--2--2--2--|--0----0--0--0--0--|--2----2--2--2--2--|--2----2--2--2--2--|
--0----0--0--0--0--|--0----0--0--0--0--|--2----2--2--2--2--|--2----2--2--2--2--|
--0----0--0--0--0--|--2----2--2--2--2--|--0----0--0--0--0--|--0----0--0--0--0--|
-------------------|--3----3--3--3--3--|-------------------|-------------------|

Q    E chord diagramEE  E chord diagramEE  E chord diagramEE  E chord diagramEE     Q    E chord diagramEE  E chord diagramEE  E chord diagramEE  E chord diagramEE     Q    E chord diagramEE  E chord diagramEE  E chord diagramEE  E chord diagramEE     Q    E chord diagramEE  E chord diagramEE  E chord diagramEE  E chord diagramEE
--3----3--3--3--3--|--3----3--3--3--3--|--0----0--0--0--0--|--0----0--0--0--0--|
--0----0--0--0--0--|--0----0--0--0--0--|--1----1--1--1--1--|--1----1--1--1--1--|
--0----0--0--0--0--|--0----0--0--0--0--|--0----0--0--0--0--|--0----0--0--0--0--|
--0----0--0--0--0--|--0----0--0--0--0--|--2----2--2--2--2--|--2----2--2--2--2--|
--2----2--2--2--2--|--2----2--2--2--2--|--3----3--3--3--3--|--3----3--3--3--3--|
--3----3--3--3--3--|--3----3--3--3--3--|-------------------|-------------------|

Q    E chord diagramEE  E chord diagramEE  E chord diagramEE  E chord diagramEE     Q    E chord diagramEE  E chord diagramEE  E chord diagramEE  E chord diagramEE     Q    E chord diagramEE  E chord diagramEE  E chord diagramEE  E chord diagramEE     Q    E chord diagramEE  E chord diagramEE  E chord diagramEE  E chord diagramEE
--0----0--0--0--0--|--3----3--3--3--3--|--0----0--0--0--0--|--0----0--0--0--0--|
--3----3--3--3--3--|--0----0--0--0--0--|--0----0--0--0--0--|--0----0--0--0--0--|
--2----2--2--2--2--|--0----0--0--0--0--|--2----2--2--2--2--|--2----2--2--2--2--|
--0----0--0--0--0--|--0----0--0--0--0--|--2----2--2--2--2--|--2----2--2--2--2--|
--0----0--0--0--0--|--2----2--2--2--2--|--0----0--0--0--0--|--0----0--0--0--0--|
-------------------|--3----3--3--3--3--|-------------------|-------------------|

Q    E chord diagramEE  E chord diagramEE  E chord diagramEE  E chord diagramEE     Q    E chord diagramEE  E chord diagramEE  E chord diagramEE  E chord diagramEE     Q    E chord diagramEE  E chord diagramEE  E chord diagramEE  E chord diagramEE     Q    E chord diagramEE  E chord diagramEE  E chord diagramEE  E chord diagramEE
--3----3--3--3--3--|--3----3--3--3--3--|--0----0--0--0--0--|--0----0--0--0--0--|
--0----0--0--0--0--|--0----0--0--0--0--|--1----1--1--1--1--|--1----1--1--1--1--|
--0----0--0--0--0--|--0----0--0--0--0--|--0----0--0--0--0--|--0----0--0--0--0--|
--0----0--0--0--0--|--0----0--0--0--0--|--2----2--2--2--2--|--2----2--2--2--2--|
--2----2--2--2--2--|--2----2--2--2--2--|--3----3--3--3--3--|--3----3--3--3--3--|
--3----3--3--3--3--|--3----3--3--3--3--|-------------------|-------------------|

Q    E chord diagramEE  E chord diagramEE  E chord diagramEE  E chord diagramEE     Q    E chord diagramEE  E chord diagramEE  E chord diagramEE  E chord diagramEE     Q    E chord diagramEE  E chord diagramEE  E chord diagramEE  E chord diagramEE     Q    E chord diagramEE  E chord diagramEE  E chord diagramEE  E chord diagramEE
--0----0--0--0--0--|--3----3--3--3--3--|--0----0--0--0--0--|--0----0--0--0--0--|
--3----3--3--3--3--|--0----0--0--0--0--|--1----1--1--1--1--|--1----1--1--1--1--|
--2----2--2--2--2--|--0----0--0--0--0--|--0----0--0--0--0--|--0----0--0--0--0--|
--0----0--0--0--0--|--0----0--0--0--0--|--2----2--2--2--2--|--2----2--2--2--2--|
--0----0--0--0--0--|--2----2--2--2--2--|--3----3--3--3--3--|--3----3--3--3--3--|
-------------------|--3----3--3--3--3--|-------------------|-------------------|

Q    E chord diagramEE  E chord diagramEE  E chord diagramEE  E chord diagramEE     Q    E chord diagramEE  E chord diagramEE  E chord diagramEE  E chord diagramEE     Q    E chord diagramEE  E chord diagramEE  E chord diagramEE  E chord diagramEE     Q    E chord diagramEE  E chord diagramEE  E chord diagramEE  E chord diagramEE
--0----0--0--0--0--|--0----0--0--0--0--|--3----3--3--3--3--|--3----3--3--3--3--|
--3----3--3--3--3--|--3----3--3--3--3--|--0----0--0--0--0--|--0----0--0--0--0--|
--2----2--2--2--2--|--2----2--2--2--2--|--0----0--0--0--0--|--0----0--0--0--0--|
--0----0--0--0--0--|--0----0--0--0--0--|--0----0--0--0--0--|--0----0--0--0--0--|
--0----0--0--0--0--|--0----0--0--0--0--|--2----2--2--2--2--|--2----2--2--2--2--|
--2----2--2--2--2--|--2----2--2--2--2--|--3----3--3--3--3--|--3----3--3--3--3--|

E chord diagramEE  E chord diagramEE  E chord diagramEE  E chord diagramEE  E chord diagramEE  E chord diagramEE     E chord diagramEE  E chord diagramEE  E chord diagramEE  E chord diagramEE  E chord diagramEE  E chord diagramEE
--0--0--0--0--0--0--|--0--0--0--0--0--0--|-------|-------|-------|-------|
--0--0--0--0--0--0--|--0--0--0--0--0--0--|-------|-------|-------|-------|
--2--2--2--2--2--2--|--2--2--2--2--2--2--|-------|-------|-------|-------|
--2--2--2--2--2--2--|--2--2--2--2--2--2--|-------|-------|-------|-------|
--0--0--0--0--0--0--|--0--0--0--0--0--0--|-------|-------|-------|-------|
--------------------|--------------------|-------|-------|-------|-------|

(03:00)

Q    E chord diagramEE  E chord diagramEE  E chord diagramEE  E chord diagramEE     Q    E chord diagramEE  E chord diagramEE  E chord diagramEE  E chord diagramEE     Q    E chord diagramEE  E chord diagramEE  E chord diagramEE  E chord diagramEE     Q    E chord diagramEE  E chord diagramEE  E chord diagramEE  E chord diagramEE
--0----0--0--0--0--|--0----0--0--0--0--|--3----3--3--3--3--|--3----3--3--3--3--|
--0----0--0--0--0--|--0----0--0--0--0--|--0----0--0--0--0--|--0----0--0--0--0--|
--2----2--2--2--2--|--2----2--2--2--2--|--0----0--0--0--0--|--0----0--0--0--0--|
--2----2--2--2--2--|--2----2--2--2--2--|--0----0--0--0--0--|--0----0--0--0--0--|
--0----0--0--0--0--|--0----0--0--0--0--|--2----2--2--2--2--|--2----2--2--2--2--|
-------------------|-------------------|--3----3--3--3--3--|--3----3--3--3--3--|

Q    E chord diagramEE  E chord diagramEE  E chord diagramEE  E chord diagramEE     Q    E chord diagramEE  E chord diagramEE  E chord diagramEE  E chord diagramEE     Q    E chord diagramEE  E chord diagramEE  E chord diagramEE  E chord diagramEE     Q    E chord diagramEE  E chord diagramEE  E chord diagramEE  E chord diagramEE
--0----0--0--0--0--|--0----0--0--0--0--|--0----0--0--0--0--|--3----3--3--3--3--|
--1----1--1--1--1--|--1----1--1--1--1--|--3----3--3--3--3--|--0----0--0--0--0--|
--0----0--0--0--0--|--0----0--0--0--0--|--2----2--2--2--2--|--0----0--0--0--0--|
--2----2--2--2--2--|--2----2--2--2--2--|--0----0--0--0--0--|--0----0--0--0--0--|
--3----3--3--3--3--|--3----3--3--3--3--|--0----0--0--0--0--|--2----2--2--2--2--|
-------------------|-------------------|-------------------|--3----3--3--3--3--|

Q    E chord diagramEE  E chord diagramEE  E chord diagramEE  E chord diagramEE     Q    E chord diagramEE  E chord diagramEE  E chord diagramEE  E chord diagramEE     Q    E chord diagramEE  E chord diagramEE  E chord diagramEE  E chord diagramEE     Q    E chord diagramEE  E chord diagramEE  E chord diagramEE  E chord diagramEE
--0----0--0--0--0--|--0----0--0--0--0--|--3----3--3--3--3--|--3----3--3--3--3--|
--0----0--0--0--0--|--0----0--0--0--0--|--0----0--0--0--0--|--0----0--0--0--0--|
--2----2--2--2--2--|--2----2--2--2--2--|--0----0--0--0--0--|--0----0--0--0--0--|
--2----2--2--2--2--|--2----2--2--2--2--|--0----0--0--0--0--|--0----0--0--0--0--|
--0----0--0--0--0--|--0----0--0--0--0--|--2----2--2--2--2--|--2----2--2--2--2--|
-------------------|-------------------|--3----3--3--3--3--|--3----3--3--3--3--|

Q    E chord diagramEE  E chord diagramEE  E chord diagramEE  E chord diagramEE     Q    E chord diagramEE  E chord diagramEE  E chord diagramEE  E chord diagramEE     Q    E chord diagramEE  E chord diagramEE  E chord diagramEE  E chord diagramEE     Q    E chord diagramEE  E chord diagramEE  E chord diagramEE  E chord diagramEE
--0----0--0--0--0--|--0----0--0--0--0--|--0----0--0--0--0--|--3----3--3--3--3--|
--1----1--1--1--1--|--1----1--1--1--1--|--3----3--3--3--3--|--0----0--0--0--0--|
--0----0--0--0--0--|--0----0--0--0--0--|--2----2--2--2--2--|--0----0--0--0--0--|
--2----2--2--2--2--|--2----2--2--2--2--|--0----0--0--0--0--|--0----0--0--0--0--|
--3----3--3--3--3--|--3----3--3--3--3--|--0----0--0--0--0--|--2----2--2--2--2--|
-------------------|-------------------|-------------------|--3----3--3--3--3--|

Q    E chord diagramEE  E chord diagramEE  E chord diagramEE  E chord diagramEE     Q    E chord diagramEE  E chord diagramEE  E chord diagramEE  E chord diagramEE     Q    E chord diagramEE  E chord diagramEE  E chord diagramEE  E chord diagramEE     Q    E chord diagramEE  E chord diagramEE  E chord diagramEE  E chord diagramEE
--0----0--0--0--0--|--0----0--0--0--0--|--0----0--0--0--0--|--0----0--0--0--0--|
--1----1--1--1--1--|--1----1--1--1--1--|--3----3--3--3--3--|--3----3--3--3--3--|
--0----0--0--0--0--|--0----0--0--0--0--|--2----2--2--2--2--|--2----2--2--2--2--|
--2----2--2--2--2--|--2----2--2--2--2--|--0----0--0--0--0--|--0----0--0--0--0--|
--3----3--3--3--3--|--3----3--3--3--3--|--0----0--0--0--0--|--0----0--0--0--0--|
-------------------|-------------------|--2----2--2--2--2--|--2----2--2--2--2--|

Q    E chord diagramEE  E chord diagramEE  E chord diagramEE  E chord diagramEE     Q    E chord diagramEE  E chord diagramEE  E chord diagramEE  E chord diagramEE     Q    E chord diagramEE  E chord diagramEE  E chord diagramEE  E chord diagramEE
--3----3--3--3--3--|--3----3--3--3--3--|--0----0--0--0--0--|-----|-------|
--0----0--0--0--0--|--0----0--0--0--0--|--0----0--0--0--0--|-----|-------|
--0----0--0--0--0--|--0----0--0--0--0--|--2----2--2--2--2--|-----|-------|
--0----0--0--0--0--|--0----0--0--0--0--|--2----2--2--2--2--|-----|-------|
--2----2--2--2--2--|--2----2--2--2--2--|--0----0--0--0--0--|-----|-------|
--3----3--3--3--3--|--3----3--3--3--3--|-------------------|-----|-------|

Duration Legend
---------------
W - whole
H chord diagramHH - half
Q - quarter
E chord diagramEE - 8th
S - 16th
T - 32nd
X - 64th
. - note dotted
|-n-|  - n-tuplets

Tablature Legend
----------------
L - tied note
x - dead note
g - grace note
(n) - ghost note
> - accentuded note
NH - natural harmonic
AH - artificial harmonic
TH - tapped harmonic
SH - semi harmonic
PH - pitch harmonic
h - hammer on
p - pull off
b - bend
br - bendRelease
pb - preBend
pbr - preBendRelease
brb - bendReleaseBend
n/ - tremolo bar dip
n - tremolo bar dive
-/n - tremolo bar Release up
/n - tremolo bar inverted dip
/n - tremolo bar return
-n - tremolo bar Release down
S - shift slide
s - legato slide
/ -  slide into from below or out of upwards
 -  slide into from above or out of downwards
~ - vibrato
W - wide vibrato
tr - trill
TP - tremolo picking
T - tapping
S - slap
P - pop
< - fade in
^ - brush up
v - brush down

That is all! I hope this helped, and be sure to check out my cover if you are
having problems with the tab. Thanks, oh and one last thing... ROCK OUT!!!!

Almost there ...

Sign in to get your own page with links to favourite songs and more. You are just one click away...

Login with Facebook Login with Google