Log in

One click and you are in

Login with Facebook Login with Google

Why sign up and log in

Guitar Tabs Explorer
Black Veil Brides guitar tabs for Rebel yell

Guitar tabs with lyrics

Hey guys, very firs tab I have EVER done so go easy, haha. This song is Black Veil
Brides cover of Bily Idols "Rebel Yell" which there are no tabs for anywhere on the internet.
I learned this all by ear, so some parts might be wrong. Just comment my errors and I
will fix them for you guys. This song is in A chord diagramC#C# tuning (A chord diagramEb MajorEb A chord diagramA#A# A chord diagramF#F# A chord diagramC#C# A chord diagramG#G# A chord diagramC#C#)thanks :)
INTRO  chords and lead
------------------------------------------------------------------|
------------------------------------------------------------------|
------------------------------------------------------------------|
--(2------------7-----5--7--7------5--7--7------5---7-------------|
--(0--3—0)--------7-------------7------------7-----------5--------|
------3—0)--------------------------------------------------------|


Guitar 3 (very optional, not needed at all)
--8--------------------------------------------------------------|
-10--------------------------------------------------------------|
--9--------------------------------------------------------------|
-----------------------------------------------------------------|
-----------------------------------------------------------------|
-----------------------------------------------------------------|



Play 4 times
------------------------------------------------------------------------|
-------------10----------------------------8----------------------------|
--9---7----------9--7-----7---9---7---------9--7-----7------------------|
----------9-------------9--------------9-------------9------------------|
------------------------------------------------------------------------|
------------------------------------------------------------------------|


Harmony Guitar    play 4 times
------------------------------------------------------------------------|
------------------------------------------------------------------------|
--------------9-----------------------------7---------------------------|
--10--9--7-----10--9--7--9--10--9--7-----10--9--7--9--------------------|
------------------------------------------------------------------------|
------------------------------------------------------------------------|



----------------------------------------------------------------------------------|
----------------------------------------------------------------------------------|
----------------------------------------------------------------------------------|
-----5-------------2--~~~~~~~~~-------------------Pick slide----------------------|
-----3-----5------0---~~~~~~~~~~~---------------Pick slide------------------------|
-----------5----------------------------------------------------------------------|


Verse
-----------------------------------------------------------------------------------------------|
-----------------------------------------------------------------------------------------------|
-----------------------------------------------------------------------------------------------|
--2---(Strum triplets)---(2-3--2--0------------------------(Repeat---------------5-------------|
--0--------------------------------------3--2—0)------3-------lick)-------0--------3---5-------|
----------------------------------------------------------3--------------------0------------5--|


Chorus
---12----------------12-------15-----------------12----------------12--------15----------|
--------13------13----------------------------------13------13----------13---------------|
-------------14-----------14----------14-----------------14--------------------------14--|
-----------------------------------------------------------------------------------------|
-----------------------------------------------------------------------------------------|
-----------------------------------------------------------------------------------------|



--15-------------------15-------18---------------------------------------------------------|
--------17-------17---------------------------------13----------------13--------15---------|
-------------17-------------17------17-----------------14------14--------------------------|
---------------------------------------------------------------14-------------14-------14--|
-------------------------------------------------------------------------------------------|
-------------------------------------------------------------------------------------------|


Chords for Chorus
------------------------------------------------------------------------|
------------------------------------------------------------------------|
------------------------------------------------------------------------|
--2----3----------------------------------------------------------------|
--0----5-----3----5-----------------------------------------------------|
--------------3----5----------------------------------------------------|




Break after chorus, play 3 times, then pickslide
-------12---10----------------------------------------------------------|
--10-------------10--12----13----12-----10------------------------------|
------------------------------------------------------------------------|
------------------------------------------------------------------------|
------------------------------------------------------------------------|
------------------------------------------------------------------------|

Harmony to Break
------------------------------------------------------------------------|
-------13--12--13---10--------------------------------------------------|
--10------------------------12--10--------------------------------------|
------------------------------------------------------------------------|
------------------------------------------------------------------------|
------------------------------------------------------------------------|





Break Before Solo, repeat multiple times

------------------------------------------------------------------------|
-------------10----------------------------8----------------------------|
--9---7----------9--7-----7---9---7---------9--7-----7------------------|
----------9-------------9--------------9-------------9------------------|
------------------------------------------------------------------------|
------------------------------------------------------------------------|


(Don’t mess up his HAIIRRRRR!!!!!) pre solo XD
-------------------------------------------------------------------------|
-------------------------------------------------------------------------|
-------------------------------------------------------------------------|
-----5--------------2----~~~~~~~~~------------2--2---------2-------------|
-----3----5--------0----~~~~~~~~~------------0--0---------0--------------|
----------5--------------------------------------------------------------|










SOLO

CHORDS during solo
------------------------------------------------------------------------|
------------------------------------------------------------------------|
------------------------------------------------------------------------|
--2--2----5-------------------------------------------------------------|
--0--0----3---3----5----------------------------------------------------|
----------------3---5---------------------------------------------------|


--18b-----18b----18----15---17~~~~~~------------------------------------|
------------------------------------------------------------------------|
------------------------------------------------------------------------|
------------------------------------------------------------------------|
------------------------------------------------------------------------|
------------------------------------------------------------------------|





-------15--17---15---------15----------------------------------------------------|
--17-------------------17--------17---15---17---15-------15----------------------|
----------------------------------------------------------17--------17----14-----|
---------------------------------------------------------------------------------|
---------------------------------------------------------------------------------|
---------------------------------------------------------------------------------|


-----------------------------------------------------------------------------------|
-----------------------------------------------------------------------------------|
--17--14-------14------------------------------------------------------------------|
------------17-------17--14--17--14-------14---------------------------------------|
------------------------------------------17-------17--14--17--14--12--14--12--10--|
-----------------------------------------------------------------------------------|


------------------------------------------------------------------------|
------------------------------------------------------------------------|
------------------------------------------------------------------------|
----------------------------------5*------------------------------------|
--12--10--7--10--7--5--7--5---------------------------------------------|
------------------------------------------------------------------------|


Tapping
------------------------------------------------------------------------|
------------------------------------------------------------------------|
--9--5--7--5--9--5--7--5--9--5--7--5---ETC.-----------------------------|
------------------------------------------------------------------------|
------------------------------------------------------------------------|
------------------------------------------------------------------------|

Then slide from 3rd fret up on 3rd string with both hands alternating.


Tap this part as well
----------------------------------------------------------------------------|
----------------------------------------------------------------------------|
---9--7--5------------------------------------------------------------------|
--------------9--7--5-------------------------------------------------------|
------------------------9--7--5---------------------------------------------|
-----------------------------------9--7--5----------------------------------|


Not entirely sure about this part… these notes, crazy pattern
 I personally kinda just play whatever here..

-------14--15--14--15--17--18-------------16--18--20--21----------------|
--17--------------------------------------------------------------------|
------------------------------------------------------------------------|
------------------------------------------------------------------------|
------------------------------------------------------------------------|
------------------------------------------------------------------------|


End Solo with this

---------------------------17~~~~~~~~~~~--------------------------------|
------------------------------------------------------------------------|
--17~~~~~~~~~~~---------------------------------------------------------|
------------------------------------------------------------------------|
------------------------------------------------------------------------|
------------------------------------------------------------------------|


(I dried your tears of pain babe) x2
-------12--10-----------------------------------------------------------|
--10-----------12--12--13--12—10~~~~~-----------------------------------|
------------------------------------------------------------------------|
------------------------------------------------------------------------|
------------------------------------------------------------------------|
------------------------------------------------------------------------|


Harmony to Post-Solo
--13--12--13------------------------------------------------------------|
-----------------13--12--10---------------------------------------------|
------------------------------------------------------------------------|
------------------------------------------------------------------------|
------------------------------------------------------------------------|
------------------------------------------------------------------------|


Repeat, then pickslide into chorus
----------------------------------------12--10---------------------------------|
--10--13--12--15----10--13---10-----------12--12--13--12--10-------------------|
-------------------------------------------------------------------------------|
-------------------------------------------------------------------------------|
-------------------------------------------------------------------------------|
-------------------------------------------------------------------------------|


Harmony
----------------------------------13--12--13--12------------------------|
--10--13--12--15--10--13------------------------13--12--10--------------|
------------------------------------------------------------------------|
------------------------------------------------------------------------|
------------------------------------------------------------------------|

↓ Add and view comments below ↓

What do you think about this song and these tabs?

Add your comments, questions, rant or a thumbs up below.

Almost there ...

Sign in to get your own page with links to favourite songs and more. You are just one click away...

Login with Facebook Login with Google