Log in

One click and you are in

Login with Facebook Login with Google

Why sign up and log in

Guitar Tabs Explorer
Black Veil Brides bass tabs for Love isnt always fair

Love Isn't Always Fair bass tab by Black Veil Brides

Black Veil Brides bass tabs for Love isnt always fair

Bass tabs

C#|o----------------------------------o|--------|
G#|o-----------------3333333355552222-o|-----7\-|
C#|--2222222200000000------------------|-2------|

0:23
|-----------------------------------------------------------------------------|----|
|o---------------------------------------------------------------------------o|----|
|o---------------------------------------------------------------------------o|----|
|-20202520~024542-2~020~2520-75257525-20202520~024542-2-22-5-55-7-77-10-1010--|-9~-|

0:43
|------------------------------------------------------------------------------|----|
|o----------------------------------------------------------------------------o|----|
|o----------------------------------------------------------------------------o|----|
|--20202520~024542-2~020~2520-75257525-20202520~024542-2-22-5-55-7-77-10-1010--|-9~-|

1:04
|---------------------------------------------------|
|o-------------------------------------------------o|
|o-------------------------------------------------o|
|--222222225555555500000000-11(x8)1010101011111414--|

1:23
|-------------------------------------|
|-------------------------------------|
|-------------------------------------|
|-20202520~024542-2~020~2520-75257525-|

1:28
|---------------------------------------------------------|
|---------------------------------------------------------|
|---------------------------------------------------------|
|-2-222000-22220~75457545-2-222000-2-22-5-55-7-77-10-1010-|

|----------------------------------------------------------------------------|----|
|----------------------------------------------------------------------------|----|
|----------------------------------------------------------------------------|----|
|-20202520~024542-2~020~2520-75257525-20202520~024542-2-22-5-55-7-77-10-1010-|-9~-|

1:49
|---------------------------------------------------|
|o-------------------------------------------------o|
|o-------------------------------------------------o|
|--222222225555555500000000-11(x8)1010101011111414--|

2:08
|-------------------------------------|
|-------------------------------------|
|-------------------------------------|
|-20202520~024542-2~020~2520-75257525-|

2:13
|------------------------------------------------|
|o----------------------------------------------o|
|o----------------------------------------------o|
|--2-222--222-2-222-2224~2-222--222-0-000-0000~--|

2:32
|---------------|
|---------------|
|-------3~---5~-|
|-2~-0~----5~---|

2:42
|------------------------------------------------------------------|
|------------------------------------------------------------------|
|---------------------------------3333333333333333--------55555555-|
|-22222-22-22-222200000-00-00-0000----------------55555555---------|

2:51
|-------------------------------------------------------------------|
|-------------------------------------------------------------------|
|-----------------------------------------22222222-7-5h7-3-5-1h3----|
2222222222222222000000000000000055555555-------------------------54-|

|--------------------------------------------------|
|--------------------------------------------------|
|-----------------------------------------22222222-|
|-2222222222222222000000000000000055555555---------|

|------------------------------|
|------------------------------|
|-7-5h7-3-5-1h3222--2-3-5-2-22-|
|------------------------------|

3:13          x4
|------------------------|---|
|o----------------------o|---|
|o----------------------o|---|
|--22225555777710101010--|-9-|

3:24
|---------------------------------------------------|
|o-------------------------------------------------o|
|o-------------------------------------------------o|
|--222222225555555500000000-11(x8)1010101011111414--|

3:44
|---------------------------------|
|---------------------------------|
|-77-9h10-55-7h9-44-6h8-3-33-5-55-|
|---------------------------------|

3:54
|-------------------------------------|
|-------------------------------------|
|------------------4~4446h8-3-33/5-55-|
|-22226h7~0~0004h6~-------------------|

4:03
|-------------------------------------|
|-------------------------------------|
|-------------------------------------|
|-20202520~024542-2~020~2520-5424-5-2-|

Almost there ...

Sign in to get your own page with links to favourite songs and more. You are just one click away...

Login with Facebook Login with Google