Search tabs and chords

Search for song, artist or band

Log in

One click and you are in

Login with Facebook Login with Google

Why sign up and log in

Guitar Tabs Explorer
Black Veil Brides bass tabs for Knives and pens

Bass tabs

-------------------------------------------------------------------------------
			   Knives and Pens - Black Veil Brides
-------------------------------------------------------------------------------

Tabbed By : Justin Kane
e-mail: Justin_Kane6049@hotmail.com
Tuning: Standard

Kso, this is a fairly easily song, well very easy. this is pretty much it.

G|----------| x2
D|----------|
A|----------|
E|-0~-8~-10~|

G|--------------------|
D|--------------------|
A|--------------------|
E|-0~-8~-10~-0~-8~-10~|

G|-------------------------------------| x2
D|-------------------------------------|
A|-------------------------------------|
E|-0-0--0-0--0-8-8-8-8-8-10-10-10-10-10|

G|-----------------------------------------------------------------|
D|-----------------------------------------------------------------|
A|-----------------------------------------------------------------|
E|-7-7-7-7-7-4-4-4-4-4-7-7-7-7-7-10-10-10-10-10-4-4-4-4-4-4-4-4-4-4|

G|-------------------------------x2|----------!
D|---------------------------------|----------|
A|---------------------------------|----------|
E|-0~-7~-0-0-0-0-0-0-0-0-0-0-0-0---|-0-0-1-0-0|

G|--------------------|
D|--------------------|
A|--------------------|
E|-0~-8~-10~-0~-8~-10~|

G|-------------------------------------| x2
D|-------------------------------------|
A|-------------------------------------|
E|-0-0--0-0--0-8-8-8-8-8-10-10-10-10-10|

G|-----------------------------------------------------------------|
D|-----------------------------------------------------------------|
A|-----------------------------------------------------------------|
E|-7-7-7-7-7-4-4-4-4-4-7-7-7-7-7-10-10-10-10-10-4-4-4-4-4-4-4-4-4-4|

G|------------------------------| x4
D|------------------------------|
A|------------------------------|
E|-0~-7~-0-0-0-0-0-0-0-0-0-0-0-0|

G|------------------------------------|
D|------------------------------------|
A|------------------------------------|
E|-0-0-0-0-0-0-0-0-0-0-0-0-0-0-0-0-0-0|

G|-----------------------------------------------------------------|
D|-----------------------------------------------------------------|
A|-----------------------------------------------------------------|
E|-7-7-7-7-7-4-4-4-4-4-10-10-10-10-10-10-11-11-11-11-11-7-7-7-7-7-7|

G|------------------------------| x4
D|------------------------------|
A|------------------------------|
E|-0~-7~-0-0-0-0-0-0-0-0-0-0-0-0|

G|--------------------------------------------|
D|--------------------------------------------|
A|--------------------------------------------|
E|-0~-0~-00-000-0-0-0-0-0-0~-0-00-0000-000-000|




| /  slide up
| \  slide down
| h  hammer-on
| p  pull-off
| ~  vibrato
| +  harmonic
| x  Mute note

Almost there ...

Sign in to get your own page with links to favourite songs and more. You are just one click away...

Login with Facebook Login with Google