Search tabs and chords

Search for song, artist or band

Log in

One click and you are in

Login with Facebook Login with Google

Why sign up and log in

Guitar Tabs Explorer
Black Veil Brides guitar tabs for In the end

Guitar tabs

Tuning: A chord diagramC#C# Tuning (A chord diagramC#C# A chord diagramF#F# A chord diagramBB A chord diagramE MajorE A chord diagramG#G# A chord diagramC#C#)

Difficulty: Intermediate

This Has both the lead guitar parts aswell as the rhythm guitar parts and is 100% correct
Lead Part

Intro:

C#|-------------------9---------10b-------------------------------------------|
G#|--5/7-7-9-10--12/5--12--10-12----------------------------------------------|
A chord diagramE MajorE |---------------------------------------------------------------------------|
A chord diagramBB |---------------------------------------------------------------------------|
F#|---------------------------------------------------------------------------|
C#|---------------------------------------------------------------------------|

C#|----------------------7----------------------------------7-9-7-9-10-9-7-------------------9-10/14-|
G#|--------10-9-10-9-7-9---10-9-10---------10-9-7-9-10-9-10---------------10-9-10-9-7-9-10-12--------|
A chord diagramE MajorE |--------------------------------------------------------------------------------------------------|
A chord diagramBB |-4-4--2-------------------------4-4--2-4----------------------------------------------------------|
F#|-4-4--2-------------------------4-4--2-4----------------------------------------------------------|
C#|-4-4--2-------------------------4-4--2-4----------------------------------------------------------|


Verse:
WAit for RHYTHM to do the palm mutes
C#|-----------------------------------------------------------------------------------------------|
G#|-----------------------------------------------------------------------------------------------|
A chord diagramE MajorE |-----------------------------------------------------------------------------------------------|
A chord diagramBB |-5-5-------------------------------------------------------------------------------------------|
F#|-5-5----4---5-4----4---5-4---4---5-4---0-2-4-5-4-2---4---5---4----4---5-4----4---5-4--7-5-4----|
C#|-5-5-4-4-4-4-4--7-7-7-7-7-6-6-6-6-6--55-----------4-4-4-4-4-4--7-7-7-7-7--6-6-6-6-6--------7-6-|
        . . . . .  . . . . . . . . . .
Chorus:

C#|---------------------------------------------------------------------------------|
G#|---------------------------------------------------------------------------------|
A chord diagramE MajorE |------7-------------------7--------------6----7-------------------7--------------|
A chord diagramBB |-4----7-x8-7----8----4----7-x8-7----2----6-x8-7-x8-7----8----4----7-x8-7----2----|
F#|-4-x8-5----7-x8-7-x8-4-x8-5----7-x8-2-x8-4----5----7-x8-7-x4-4-x8-5----7-x8-2-x5-|
C#|-4---------7----5----4---------7----2--------------7----5----4---------7----2----|

Bridge:

C#|-------------------------------|
G#|-------------------------------|
A chord diagramE MajorE |------------------------7--9---|
A chord diagramBB |-4-4--2-4--2--4-4--2-4--7--9---|
F#|-4-4--2-4--2--4-4--2-4--5--7---|
C#|-4-4--2-4--2--4-4--2-4---------|

Verse:
WAit for RHYTHM to do the palm mutes
C#|-----------------------------------------------------------------------------------------------|
G#|-----------------------------------------------------------------------------------------------|
A chord diagramE MajorE |-----------------------------------------------------------------------------------------------|
A chord diagramBB |-5-5-------------------------------------------------------------------------------------------|
F#|-5-5----4---5-4----4---5-4---4---5-4---0-2-4-5-4-2---4---5---4----4---5-4----4---5-4--7-5-4----|
C#|-5-5-4-4-4-4-4--7-7-7-7-7-6-6-6-6-6--55-----------4-4-4-4-4-4--7-7-7-7-7--6-6-6-6-6--------7-6-|

Chorus:

C#|--------------------------------------------------------------|
G#|--------------------------------------------------------------|
A chord diagramE MajorE |------7-------------------7--------------6----7---------------|
A chord diagramBB |-4----7-x8-7----8----4----7-x8-7----2----6-x8-7-x8-7----8-----|
F#|-4-x8-5----7-x8-7-x8-4-x8-5----7-x8-2-x8-4----5----7-x8-7-x4--|
C#|-4---------7----5----4---------7----2--------------7----5-----|

C#|-17-17---------17-------------------|
G#|------17-15-14---14------------14---|
A chord diagramE MajorE |-------------------16-14--14/16--16-|
A chord diagramBB |------------------------------------|
F#|------------------------------------|
C#|------------------------------------|

Solo:

C#|---------16b-16--12-----12-12--------------------------------------------------------------------|
G#|-14-15-14----------14-15----------------------------------------------------------------14-15-17-|
A chord diagramE MajorE |------------------------------16-14-13------13-14-16-14-16-14-13-14-16-14-13-14-16-14-13---------|
A chord diagramBB |--------------------------------------14--14-----------------------------------------------------|
F#|-------------------------------------------------------------------------------------------------|
C#|-------------------------------------------------------------------------------------------------|

C#|-12b-12br--17b-17~~--17-12--12-17-12-19-12-17-12----19-16--16-19-16-21-16-19-16-------------16-17~~-|
G#|---------14---------------14--------------------14-------17--------------------17---------17--------|
A chord diagramE MajorE |--------------------------------------------------14-----------------------------16-----16----------|
A chord diagramBB |-----------------------------------------------------------------------------------18-18------------|
F#|----------------------------------------------------------------------------------------------------|
C#|----------------------------------------------------------------------------------------------------|

Chorus:

C#|--------------------17-17--------17--------------------------------------------|
G#|-------------------------17-15-14--14-------------14---------------------------|
A chord diagramE MajorE |------7------------------------------16-14--14-16---16----------7--------------|
A chord diagramBB |-4----7-x8-7----2-------------------------------------5----7----7-x8-7----2----|
F#|-4-x8-5----7-x8-2-x8----------------------------------5-x4-7-x8-5----7-x8-2-x8-|
C#|-4---------7----2-------------------------------------5----7---------7----2----|
                                                         .
Solo 2:

C#|-17p12--x3-17p12-x2-17p14--x3-17p14-x2-17p12--x2-17p12-x2-19-16-14-----------------------------------|
G#|------14-----------------15-----------------14--------------------19-17-14-x2------------------------|
A chord diagramE MajorE |------------------------------------------------------------------------------18-16-14-x2------------|
A chord diagramBB |-----------------------------------------------------------------------------------------18-16-14-14-|
F#|-----------------------------------------------------------------------------------------------------|
C#|-----------------------------------------------------------------------------------------------------|

C#|-----------17--16-17-16-14-16-12-16-14-12--------------------------------------16-|
G#|---12-14-15------------------------------12----------------------------14-15-17---|
A chord diagramE MajorE |-14----------------------------------------16-14--14-16-14-16-14-16-18------------|
F#|----------------------------------------------------------------------------------|
F#|----------------------------------------------------------------------------------|
C#|----------------------------------------------------------------------------------|

[Chorus

C#|-17-12/10-10/14-14-14/10-10/12-12-12/9-9/10-7--9--5---------------|
G#|------------------------------------------------------------------|
A chord diagramE MajorE |---------------------------------------------------7--------------|
A chord diagramBB |---------------------------------------------------7-x8-7----2----|
F#|---------------------------------------------------5----7-x8-2-x5-|
C#|--------------------------------------------------------7----2----|

Outro:

C#|----------------------7------------------------|
G#|--------10-9-10-9-7-9---10-9-10----------------|
A chord diagramE MajorE |-----------------------------------------7--9--|
A chord diagramBB |-4-4--2-------------------------4-4--2-4-7--9--|
F#|-4-4--2-------------------------4-4--2-4-5--5--|
C#|-4-4--2-------------------------4-4--2-4-------|

C#|----------------------7----------------------------------7-9-7-9-10-9-7-------------------9-10/14---------|
G#|--------10-9-10-9-7-9---10-9-10---------10-9-7-9-10-9-10---------------10-9-10-9-7-9-10-12----------------|
A chord diagramE MajorE |----------------------------------------------------------------------------------------------------------|
A chord diagramBB |-4-4--2-------------------------4-4--2-4---------------------------------------------------------4-4--2-4-|
F#|-4-4--2-------------------------4-4--2-4---------------------------------------------------------4-4--2-4-|
C#|-4-4--2-------------------------4-4--2-4---------------------------------------------------------4-4--2-4-|

Rhythm Part:

Intro:

C#|----------------------------------------------------------|
G#|----------------------------------------------------------|
A chord diagramE MajorE |----------------------------------------------------7--9--|
A chord diagramBB |-4----5----7----2-----2-2----4-4--2-4--2---4-4--2-4-7--9--|
F#|-4-x8-5-x8-7-x8-2-x5--2-2----4-4--2-4--2---4-4--2-4-5--7--|
C#|-4----5----7----2-----2-2----4-4--2-4--2---4-4--2-4-------|
    .    .    .    .
Verse:


C#|-----------------------------|
G#|-----------------------------|
A chord diagramE MajorE |-----------------------------|
A chord diagramBB |-4----7----6----5----5-5-----|
F#|-4-x8-7-x8-6-x8-5-x5-5-5-----|
C#|-4----7----6----5----5-5-----|
    .    .    .    .

C#|--------------------------------------------------------------------------------------------|
G#|--------------------------------------------------------------------------------------------|
A chord diagramE MajorE |--------------------------------------------------------------------------------------------|
A chord diagramBB |--------------------------------------------------------------------------------------------|
F#|-----4---5-4----4---5-4---4---5-4---0-2-4-5-4-2---4---5---4----4---5-4----4---5-4--7-5-4----|
C#|--4-4-4-4-4--7-7-7-7-7-6-6-6-6-6--55-----------4-4-4-4-4-4--7-7-7-7-7--6-6-6-6-6--------7-6-|

Chorus:

C#|---------------------------------------------------------------------------------|
G#|---------------------------------------------------------------------------------|
A chord diagramE MajorE |------7-------------------7--------------6----7-------------------7--------------|
A chord diagramBB |-4----7-x8-7----8----4----7-x8-7----2----6-x8-7-x8-7----8----4----7-x8-7----2----|
F#|-4-x8-5----7-x8-7-x8-4-x8-5----7-x8-2-x8-4----5----7-x8-7-x4-4-x8-5----7-x8-2-x5-|
C#|-4---------7----5----4---------7----2--------------7----5----4---------7----2----|

Bridge:

C#|-------------------------------|
G#|-------------------------------|
A chord diagramE MajorE |------------------------7--9---|
A chord diagramBB |-4-4--2-4--2--4-4--2-4--7--9---|
F#|-4-4--2-4--2--4-4--2-4--5--7---|
C#|-4-4--2-4--2--4-4--2-4---------|

Verse:


C#|-----------------------------|
G#|-----------------------------|
A chord diagramE MajorE |-----------------------------|
A chord diagramBB |-4----7----6----5----5-5-----|
F#|-4-x8-7-x8-6-x8-5-x5-5-5-----|
C#|-4----7----6----5----5-5-----|
    .    .    .    .

C#|--------------------------------------------------------------------------------------------|
G#|--------------------------------------------------------------------------------------------|
A chord diagramE MajorE |--------------------------------------------------------------------------------------------|
A chord diagramBB |--------------------------------------------------------------------------------------------|
F#|-----4---5-4----4---5-4---4---5-4---0-2-4-5-4-2---4---5---4----4---5-4----4---5-4--7-5-4----|
C#|--4-4-4-4-4--7-7-7-7-7-6-6-6-6-6--55-----------4-4-4-4-4-4--7-7-7-7-7--6-6-6-6-6--------7-6-|

Chorus:

C#|---------------------------------------------------------------------------------|
G#|---------------------------------------------------------------------------------|
A chord diagramE MajorE |------7-------------------7--------------6----7-------------------7--------------|
A chord diagramBB |-4----7-x8-7----8----4----7-x8-7----2----6-x8-7-x8-7----8----4----7-x8-7----2----|
F#|-4-x8-5----7-x8-7-x8-4-x8-5----7-x8-2-x8-4----5----7-x8-7-x4-4-x8-5----7-x8-2-x5-|
C#|-4---------7----5----4---------7----2--------------7----5----4---------7----2----|

Solo:

C#|----------------------------------------------------------------------------------|
G#|----------------------------------------------------------------------------------|
A chord diagramE MajorE |------7-------------------7--------------6----7-------------------7---------------|
A chord diagramBB |-4----7-x8-7----8----4----7-x8-7----2----6-x8-7-x8-7----8----4----7-x8-7----2-----|
F#|-4-x8-5----7-x8-7-x8-4-x8-5----7-x8-2-x8-4----5----7-x8-7-x4-4-x8-5----7-x8-2-x5--|
C#|-4---------7----5----4---------7----2--------------7----5----4---------7----2-----|

Chorus:

C#|------------------------------------------------------------------|
G#|------------------------------------------------------------------|
A chord diagramE MajorE |---------7--------------6----7-------------------7----------------|
A chord diagramBB |-4--4----7-x8-7----2----6-x8-7-x8-7----5----4----7-x8-7----2------|
F#|-4--4-x8-5----7-x8-2-x8-4----5----7-x8-5-x4-4-x8-5----7-x8-2-x8---|
C#|-4--4---------7----2--------------7----5----4---------7----2------|
                                          .
Solo 2 and Chorus:

C#|---------------------------------------------------------------------------------|
G#|---------------------------------------------------------------------------------|
A chord diagramE MajorE |------7-------------------7--------------6----7-------------------7--------------|
A chord diagramBB |-4----7-x8-7----8----4----7-x8-7----2----6-x8-7-x8-7----8----4----7-x8-7----2----|
F#|-4-x8-5----7-x8-7-x8-4-x8-5----7-x8-2-x8-4----5----7-x8-7-x4-4-x8-5----7-x8-2-x5-|
C#|-4---------7----5----4---------7----2--------------7----5----4---------7----2----|

Outro:

C#|-------------------------------------------|
G#|-------------------------------------------|
A chord diagramE MajorE |-------------------------7--9--------------|
A chord diagramBB |--4-4--2-4--2---4-4--2-4-7--9-x2-4-4--2-4--|
F#|--4-4--2-4--2---4-4--2-4-5--7----4-4--2-4--|
C#|--4-4--2-4--2---4-4--2-4---------4-4--2-4--|



************************************

| b   Bend
| /   Slide up

| x   Dead note
| br  Bend release
| ~   Vibrato
| p   Pull-off


************************************

Other versions of In The End

In the endChords

Almost there ...

Sign in to get your own page with links to favourite songs and more. You are just one click away...

Login with Facebook Login with Google