Log in

One click and you are in

Login with Facebook Login with Google

Why sign up and log in

Guitar Tabs Explorer
Black Veil Brides guitar tabs for Crown of thorns

Guitar tabs

Intro

Guitar 3
D#|--------------------------------------------------------------------------------|
A#|--------------------------------------------------------------------------------|
F#|--5---------------5-------------------------------------------------------------|
C#|----7---7-------7---7---7---7---------------------------------------------------| X4
G#|------7---7---7-------7---7---7-------------------------------------------------|
C#|7-----------7-------------------------------------------------------------------|

Guitar 2
D#|5-3-5----5-3-5------------------------------------------------------------------|
A#|------5--------5----------------------------------------------------------------|
F#|--------------------------------------------------------------------------------|
C#|--------------------------------------------------------------------------------| X4
G#|--------------------------------------------------------------------------------|
C#|--------------------------------------------------------------------------------|

Guitar 1
D#|5-3-5---5-3-5----8-7-8-5-8-7-8-5--12-10-12-8-12-10-12-8--17-15-17----17-15-17---|
A#|------5-------5---------------------------------------------------17----------17|
F#|--------------------------------------------------------------------------------|
C#|--------------------------------------------------------------------------------|
G#|--------------------------------------------------------------------------------|
C#|--------------------------------------------------------------------------------|

Guitar 2
D#|--------------------------------------------------------------------------------|
A#|--------------------------------------------------------------------------------|
F#|--------------------------------------------------------------------------------|
C#|7-7-7--5-5--0--0-0-0--2-2--7----------------------------------------------------| X2
G#|7-7-7--5-5--0--0-0-0--2-2--7----------------------------------------------------|
C#|7-7-7--5-5--0--0-0-0--2-2--7----------------------------------------------------|

Guitar 1
D#|--------------------------------------------------------------------------------|
A#|10---10-8b10----------------------------13-12-13--------------------------------|
F#|---9---------10--10----10-12b14br12-14-----------14-12h14p12--------------------|
C#|--------------------10---------------------------------------15-14-12-14--------|
G#|--------------------------------------------------------------------------------|
C#|--------------------------------------------------------------------------------|

D#|--------------------------------------------------------------------------------|
A#|13-12-13-----13-13b15-13-12-----------------------------------------------------|
F#|---------14-----------------14--------------------------------------------------|
C#|--------------------------------------------------------------------------------|
G#|--------------------------------------------------------------------------------|
C#|--------------------------------------------------------------------------------|


Verse

Guitar 3
D#|--------------------------------------------------------------------------------|
A#|--------------------------------------------------------------------------------|
F#|--------------------------------------------------------------5*-----1-4--------|
C#|7--7-7-----------------5--5-5-------------0--0-0-0--3-2-3-x-x----2-2------------| X2
G#|7--7-7-----------------5--5-5--7---5---3--0--0-0-0--3-2-3-x-x----2-2------------|
C#|7--7-7--9-10-9h10p9-7--5--5-5----5---5----0--0-0-0--3-2-3-x-x----2-2------------|

D#|--------------------------------------------------------------------------------|
A#|--------------------------------------------------------------------------------|
F#|--------------------------------------------------------------------------------|
C#|7--7-7------------10--10-10---------------3--3-3-----------5-5-5-5-5------------|
G#|7--7-7------------10--10-10---------------3--3-3-----------5-5-5-5-5------------|
C#|7--7-7--9-10-9-7--10--10-10--12-14-12-10--3--3-3--5-7-5-3--5-5-5-5-5------------|


Pre-Chorus

Guitar 1
D#|15-12-----------------------------------15-12-----------------------------------|
A#|------13----------13-12-10h12p10-9------------13----------13-15-17h18-17--------|
F#|---------12----12------------------10-9----------12----12-----------------------|
C#|------------10--------------------------------------10--------------------------|
G#|--------------------------------------------------------------------------------|
C#|--------------------------------------------------------------------------------|


Chorus

Guitar 2 : Like the second part of the intro

Guitar 1
D#|---------12-------13----15-------12---------------------------------------------|
A#|13-12-13----13-12----12----13-12----13-12----12---------------------------------|
F#|------------------------------------------14------------------------------------|
C#|--------------------------------------------------------------------------------|
G#|--------------------------------------------------------------------------------|
C#|--------------------------------------------------------------------------------|

D#|---------12-------13----15-------12---------------------------------------------|
A#|13-12-13----13-12----12----13-12----13-12---------------------------------------|
F#|------------------------------------------14------------------------------------|
C#|--------------------------------------------------------------------------------|
G#|--------------------------------------------------------------------------------|
C#|--------------------------------------------------------------------------------|

For the Chorus, play twice both parts then once the second part


Verse

Pre-Chorus

Chorus


Bridge

Guitar 2 (clean)
D#|--------------------------------------------------------------------------------|
A#|13-------13-------13/15-12-12/13-10--10-----10-----10-10/12-12/15-13------------|
F#|------------------------------------------9------9------------------------------|
C#|------14-------14-----------------------7------7--------------------------------|
G#|---12-------12------------------------------------------------------------------|
C#|--------------------------------------------------------------------------------|

D#|--------------------------------------------------------------------------------|
A#|13-------13-15-17-18-17-10-10-----10-----10-12-12/15-13-------------------------|
F#|--------------------------------9------9----------------------------------------|
C#|------14----------------------7------7------------------------------------------|
G#|---12---------------------------------------------------------------------------|
C#|--------------------------------------------------------------------------------|

Play twice continue for the solo


Solo

Guitar 1
D#|-------------13-12--------------------------------------------------------------|
A#|13-12----12--------13-15/17-----------------------------------------------------|
F#|------14------------------------------------------------------------------------|
C#|--------------------------------------------------------------------------------| X4
G#|--------------------------------------------------------------------------------|
C#|--------------------------------------------------------------------------------|

After

Guitar 2
D#|--------------------------------------------------------------------------------|
A#|10-8---8--13-12-10-12/13--------------------------------------------------------|
F#|-----9--------------------------------------------------------------------------|
C#|--------------------------------------------------------------------------------| X2
G#|--------------------------------------------------------------------------------|
C#|--------------------------------------------------------------------------------|


Chorus X2


Final

Guitar 1
D#|--------------------------------------------------------------------------------|
A#|13-------13-------13/15-12-12/13-10-10-----10-----10-10/12-8--10----------------|
F#|-----------------------------------------9------9-------------9-----------------|
C#|------14-------14----------------------7------7---------------7-----------------|
G#|---12-------12------------------------------------------------------------------|
C#|--------------------------------------------------------------------------------|

Any corrections at lucas.nicolle50@gmail.com

************************************

| /   slide up
| \   slide down
| h   hammer-on
| p   pull-off
| ~   vibrato
| +   harmonic
| x   Mute note
| b   Bend
| pb  Pre-bend
| br  Bend release
| pbr Pre-bend release
| brb Bend release bend

************************************

Almost there ...

Sign in to get your own page with links to favourite songs and more. You are just one click away...

Login with Facebook Login with Google