Log in

One click and you are in

Login with Facebook Login with Google

Why sign up and log in

Guitar Tabs Explorer
Black Tide guitar tabs for Take it easy

Guitar tabs

-0---0---0---0-|
-6---5---0---2-|
-4---4---3---2-|
-4---6---4---2-|
---------------|
---------------|
               part 1
-------------------------------------|
----------------4-4-5-5-4-4----------|
-------4-4------------------4-4-6-6--|
-------------------------------------|
-4-4-4-----4-4-----------------------|
-------------------------------------|
 * * *     * *
-------------------------------------|
-------------------------------------|
-------4-4-----4---------------------|
-------------------------------------|
-4-4-4-----4-4---4-4--2--------------|
----------------------0--------------|
 * * *     * *   * *

                      verse
---------------------------------------------4--4-4-4-----------------------|
------5-5-5------4--4-4-4------5-5-5----------------------------------------|
----------------------------------------------------------------------------|
----------------------------------------------------------------------------|
-4-4-4------4-4-4---------4-4-4--------4-4-4--------------------------------|
----------------------------------------------------------------------------|
 * * *      * * *         * * *        * * *


----------------------------------------------------------------------------|
--------------------------------------------4--4-4-4------------------------|
------2-2-2-------1--1-1-1------2-2-2---------------------------------------|
----------------------------------------------------------------------------|
--------------------------0-0-0--------2-2-2--------------------------------|
-2-2-2-------2-2-2----------------------------------------------------------|
 * * *       * * *        * * *        * * *
                               pre chorus
------------------------------------------------------------------------|
-------5--------5-----5-------------------------------------------------|
------------------------------4-------4-----4---------------------------|
----------------------------------------------------6-------6-----6-----|
-4-4-4----4-4-4---4-4---0-0-0---0-0-0---0-0-----------------------------|
----------------------------------------------0-0-0---0-0-0---0-0-------|
 * * *    * * *   * *   * * *   * * *   * *   * * *   * * *   * *
-----------------------|
-----------------------|
-----------------------|
-------4-------4-----4-|
-5-5-5---5-5-5---5-5---|
-----------------------|
 * * *   * * *   * *

                             chorus

--------------------------------------------|
--------------------------------------------|
----------2--2--2------------2--2--2--------|
-4--4--4--2--2--2--4--4--4---2--2--2--------|
-2--2--2--0--0--0--4--4--4---0--0--0--------|
-2--2--2-----------2--2--2------------------|


bridge/solo
--------11----------------------------|
--------------------------------------|
-9-11-13--13-11--x4-9-11-13--13-11-9--|
--------------------------------------|
--------------------------------------|
--------------------------------------|
do this part some times till pm part comes
-----------------------------------------------------------------------------|
---------12------------------------------------------------------------------|
-13-11-13--------------------------------------------------------------------|
-----------------------------------------------------------------------------|
-----------------------------------------------------------------------------|
-------------2-2-2-2-2-2-2-2-2-2-2-2-2-2-2-2-5-5-5-5-5-5-5-5-5-5-5-5-5-5-5-5-|
             ***************************************************************

song goes

intro
part 1

verse

prechorus

chorus
part 1

verse

prechorus

chorus

bridge/solo

intro

Almost there ...

Sign in to get your own page with links to favourite songs and more. You are just one click away...

Login with Facebook Login with Google