Log in

One click and you are in

Login with Facebook Login with Google

Why sign up and log in

Guitar Tabs Explorer
Black Stone Cherry bass tabs for White trash millionaire

White Trash Millionaire bass tab by Black Stone Cherry

Black Stone Cherry bass tabs for White trash millionaire

Bass tabs

INTRO:

   1  +  2  +  3  +  4  +   1  +  2  +  3  +  4  +
E |-----------------------------------------|-----------------------------------------|
B |-----------------------------------------|-----------------------------------------|
F#|-----------------------------------------|-----------------------------------------|
B |-----------------------------------------|--0---------0---------0---------0--------|
  1 e + a 2 e + a 3 e + a 4 e + a  1 e + a 2 e + a 3 e + a 4 e + a
E |-------------------------------------------------|-------------------------------------------------|
B |-------------------------------------------------|-------------------------------------------------|
F#|-------------------------5--3--------------------|-------------------------5--3--------------------|
B |-0-----------5-----3-----------5-----3-----0-----|-------------5-----3-----------5-----3-----------|


  1 e + a 2 e + a 3 e + a 4 e + a   1  +  2  +  3  +  4  +
E |-------------------------------------------------|-----------------------------------------|
B |-------------------------------------------------|-----------------------------------------|
F#|-------------------------5--3--------------3-----|-------3---------------------------------|
B |-0-----------5-----3-----------5-----3-----------|------------5----3----5b---r----3--------|


VERSE 1:

   1  +  2  +  3  +  4  +   1  +  2  +  3  +  4  +
E |-----------------------------------------|-----------------------------------------|
B |-----------------------------------------|-----------------------------------------|
F#|-----------------------------------------|-----------------------------------------| (x2)
B |--3---------5----3----5----0-------------|-----------------------------------------|


   1  +  2  +  3  +  4  +   1  +  2  +  3  +  4  +
E |-----------------------------------------|-----------------------------------------|
B |-----------------------------------------|-----------------------------------------|
F#|-----------------------------------------|-----------------------------------------|
B |--3---------5----3----5----0----0----0---|--0----0----0----0----0----0----0----0---|

   1  +  2  +  3  +  4  +   1 e + a 2 e + a 3 e + a 4 e + a
E |-----------------------------------------|-------------------------------------------------|
B |-----------------------------------------|-------------------------------------------------|
F#|-----------------------------------------|-------------------------------------------------|
B |--3---------5----3----5----0----0----0---|-0-----0-----0-----0----/12----12-12-12-12-12-12-|


CHORUS 1:

   1  +  2  +  3  +  4  +   1  +  2  +  3  +  4  +
E |-----------------------------------------|-----------------------------------------|
B |-----------------------------------------|-----------------------------------------|
F#|--5----5----5----5----5----5----5----5---|--3----3----3----3----3----3----3----3---|
B |-----------------------------------------|-----------------------------------------|


   1  +  2  +  3  +  4  +   1 e + a 2 e + a 3 e + a 4 e + a
E |-----------------------------------------|-------------------------------------------------|
B |-----------------------------------------|-------------------------------------------------|
F#|-----------------------------------------|----------------------------3--------------------|
B |--5----5----5----5----5----5----5----5---|-3-----3-----3-----3-----3-----------3--5--------|


   1  +  2  +  3  +  4  +   1  +  2  +  3  +  4  +
E |-----------------------------------------|-----------------------------------------|
B |-----------------------------------------|-----------------------------------------|
F#|--5----5----5----5----5----5----5----5---|--3----3----3----3----3----3----3----3---|
B |-----------------------------------------|-----------------------------------------|


   1  +  2  +  3  +  4  +   1  +  2  +  3  +  4  +
E |-----------------------------------------|-----------------------------------------|
B |-----------------------------------------|-----------------------------------------|
F#|-----------------------------------------|-----------------------------------------|
B |--5----5----5----5----5----5----5----5---|--3----3----3----3----3----3----3----3---|


PRE-VERSE 1:

  1 e + a 2 e + a 3 e + a 4 e + a  1 e + a 2 e + a 3 e + a 4 e + a
E |-------------------------------------------------|-------------------------------------------------|
B |-------------------------------------------------|-------------------------------------------------|
F#|-------------------------5--3--------------------|-------------------------5--3--------------------|
B |-0-----------5-----3-----------5-----3-----0-----|-------------5-----3-----------5-----3-----------|


  1 e + a 2 e + a 3 e + a 4 e + a   1  +  2  +  3  +  4  +
E |-------------------------------------------------|-----------------------------------------|
B |-------------------------------------------------|-----------------------------------------|
F#|-------------------------5--3--------------3-----|-------3---------------------------------|
B |-0-----------5-----3-----------5-----3-----------|------------5----3----5b---r----3--------|


VERSE 2:

   1  +  2  +  3  +  4  +   1  +  2  +  3  +  4  +
E |-----------------------------------------|-----------------------------------------|
B |-----------------------------------------|-----------------------------------------|
F#|-----------------------------------------|-----------------------------------------| (x2)
B |--3---------5----3----5----0-------------|--0---------0---------0---------0--------|

                                       |---3---|
   1  +  2  +  3  +  4  +   1  +  2  +  3  +  4  ~  ~
E |-----------------------------------------|--------------------------------------------|
B |-----------------------------------------|--------------------------------------------|
F#|-----------------------------------------|--------------------------------------------|
B |--3---------5----3----5----0-------------|--0---------0---------0---------5---3---0---|


   1  +  2  +  3  +  4  +   1  +  2  +  3  +  4  +
E |-----------------------------------------|-----------------------------------------|
B |-----------------------------------------|-----------------------------------------|
F#|-----------------------------------------|-----------------------------------------| (x2)
B |--3---------5----3----5----0-------------|--0---------0---------0---------0--------|


CHORUS 2:

   1  +  2  +  3  +  4  +   1  +  2  +  3  +  4  +
E |-----------------------------------------|-----------------------------------------|
B |-----------------------------------------|-----------------------------------------|
F#|--5----5----5----5----5----5----5----5---|--3----3----3----3----3----3----3----3---|
B |-----------------------------------------|-----------------------------------------|


   1  +  2  +  3  +  4  +   1 e + a 2 e + a 3 e + a 4 e + a
E |-----------------------------------------|-------------------------------------------------|
B |-----------------------------------------|-------------------------------------------------|
F#|-----------------------------------------|----------------------------3--------------------|
B |--5----5----5----5----5----5----5----5---|-3-----3-----3-----3-----3-----------3--5--------|


   1  +  2  +  3  +  4  +   1  +  2  +  3  +  4  +
E |-----------------------------------------|-----------------------------------------|
B |-----------------------------------------|-----------------------------------------|
F#|--5----5----5----5----5----5----5----5---|--3----3----3----3----3----3----3----3---|
B |-----------------------------------------|-----------------------------------------|


   1  +  2  +  3  +  4  +   1  +  2  +  3  +  4  +
E |-----------------------------------------|-----------------------------------------|
B |-----------------------------------------|-----------------------------------------|
F#|-----------------------------------------|-----------------------------------------|
B |--5----5----5----5----5----5----5----5---|--3----3----3----3----3----3----3----3---|


SOLO:

   1  +  2  +  3  +  4  +   1  +  2  +  3  +  4  +
E |-----------------------------------------|-----------------------------------------|
B |-----------------------------------------|-----------------------------------------|
F#|--3----5---------------------------------|--2----3---------------------------------| (x2)
B |-----------------------------------------|-----------------------------------------|


   1  +  2  +  3  +  4  +   1  +  2  +  3  +  4  +
E |-----------------------------------------|-----------------------------------------|
B |-----------------------------------------|-----------------------------------------|
F#|-----------------------------------------|-----------------------------------------|
B |--3----5---------------------------------|--3----3----3----3----5----5----5----5---|


  1 e + a 2 e + a 3 e + a 4 e + a  1  +  2  +  3  +  4  +
E |-------------------------------------------------|-----------------------------------------|
B |-------------------------------------------------|-----------------------------------------|
F#|-3-----5--------------------------------------3--|------5----------------------------------|
B |-------------------------------------------------|-----------------------------------------|

   1  +  2  +  3  +  4  +   1 e + a 2 e + a 3 e + a 4 e + a
E |-----------------------------------------|-------------------------------------------------|
B |-----------------------------------------|-------------------------------------------------|
F#|--3----5---------------------------------|-3-----3--3--3--3--3--3--3-----------------------|
B |-----------------------------------------|-------------------------------------------------|


BRIDGE:

  1 e + a 2 e + a 3 e + a 4 e + a  1  +  2  +  3  +  4  +
E |-------------------------------------------------|-----------------------------------------|
B |-------------------------------------------------|-----------------------------------------|
F#|-3-----5--------------------------------------3--|------5----------------------------------|
B |-------------------------------------------------|-----------------------------------------|

   1  +  2  +  3  +  4  +   1 e + a 2 e + a 3 e + a 4 e + a
E |-----------------------------------------|-------------------------------------------------|
B |-----------------------------------------|-------------------------------------------------|
F#|--3----5---------------------------------|-3-----3--3--3--3--3--3--3-----------------------|
B |-----------------------------------------|-------------------------------------------------|


CHORUS 3:

   1  +  2  +  3  +  4  +   1  +  2  +  3  +  4  +
E |-----------------------------------------|-----------------------------------------|
B |-----------------------------------------|-----------------------------------------|
F#|--5----5----5----5----5----5----5----5---|--3----3----3----3----3----3----3----3---|
B |-----------------------------------------|-----------------------------------------|

                                   |-3-| |-3-| |-3-|
   1  +  2  +  3  +  4  +   1 e + a 2 e + a 3 ~ ~ + ~ ~ 4 ~ ~ + a
E |-----------------------------------------|-------------------------------------------------|
B |-----------------------------------------|-------------------------3-2-0-------------------|
F#|-----------------------------------------|-------------------------------3-2-0-------------|
B |--5----5----5----5----5----5----5----5---|-3-----3-----3-----3-----------------3-2-0-3-----|


   1  +  2  +  3  +  4  +   1  +  2  +  3  +  4  +
E |-----------------------------------------|-----------------------------------------|
B |-----------------------------------------|-----------------------------------------|
F#|--5----5----5----5----5----5----5----5---|--3----3----3----3----3----3----3----3---|
B |-----------------------------------------|-----------------------------------------|


   1  +  2  +  3  +  4  +   1  +  2  +  3  +  4  +
E |-----------------------------------------|-----------------------------------------|
B |-----------------------------------------|-----------------------------------------|
F#|-----------------------------------------|-----------------------------------------|
B |--5----5----5----5----5----5----5----5---|--3----3----3----3----3----3----3----3---|


  1 e + a 2 e + a 3 e + a 4 e + a  1 e + a 2 e + a 3 e + a 4 e + a
E |-------------------------------------------------|-------------------------------------------------|
B |-------------------------------------------------|-------------------------------------------------|
F#|-5-----5--5--5-----5--5--5-----5--5--5-----5--5--|-3-----3--3--3-----3--3--3-----3--3--3-----3--3--|
B |-------------------------------------------------|-------------------------------------------------|


  1 e + a 2 e + a 3 e + a 4 e + a  1 e + a 2 e + a 3 e + a 4 e + a
E |-------------------------------------------------|-------------------------------------------------|
B |-------------------------------------------------|-------------------------3--2--0-----------------|
F#|-------------------------------------------------|----------------------------------3--2--0--------|
B |-5-----5--5--5-----5--5--5-----5--5--5-----5--5--|-3-----3--3--3-----3--3--------------------3--0--|


  1 e + a 2 e + a 3 e + a 4 e + a  1 e + a 2 e + a 3 e + a 4 e + a
E |-------------------------------------------------|-------------------------------------------------|
B |-------------------------------------------------|-------------------------------------------------|
F#|-5-----5--5--5-----5--5--5-----5--5--5-----5--5--|-3-----3--3--3-----3--3--3-----3--3--3-----3--3--|
B |-------------------------------------------------|-------------------------------------------------|


  1 e + a 2 e + a 3 e + a 4 e + a  1 e + a 2 e + a 3 e + a 4 e + a
E |-------------------------------------------------|-------------------------------------------------|
B |-------------------------------------------------|-------------------------------------------------|
F#|-------------------------------------------------|-------------------------------------------------|
B |-5-----5--5--5-----5--5--5-----5--5--5-----5--5--|-3-----3--3--3-----3--3--3-----3--3--3-----3--3--|


OUTRO:

  1 e + a 2 e + a 3 e + a 4 e + a  1 e + a 2 e + a 3 e + a 4 e + a
E |-------------------------------------------------|-------------------------------------------------|
B |-------------------------------------------------|-------------------------------------------------|
F#|-------------------------5--3--------------------|-------------------------5--3--------------------|
B |-0-----------5-----3-----------5-----3-----0-----|-------------5-----3-----------5-----3-----------|


  1 e + a 2 e + a 3 e + a 4 e + a   1  +  2  +  3  +  4  +
E |-------------------------------------------------|-----------------------------------------|
B |-------------------------------------------------|-----------------------------------------|
F#|-------------------------5--3--------------3-----|-------3---------------------------------|
B |-0-----------5-----3-----------5-----3-----------|------------5----3----5b---r----3--------|


   1  +  2  +  3  +  4  +   1  +  2  +  3  +  4  +
E |-----------------------------------------|-----------------------------------------|
B |-----------------------------------------|-----------------------------------------|
F#|-----------------------------------------|-----------------------------------------|
B |--0---------0---------0---------0--------|--0--------------------------------------|
ⓘ Bass guitar tab for 'White Trash Millionaire' by Black Stone Cherry, a hard rock band formed in 2001 from Kent ky, USA. Black Stone Cherry is known for their gritty rock/pop music.

Almost there ...

Sign in to get your own page with links to favourite songs and more. You are just one click away...

Login with Facebook Login with Google