Log in

One click and you are in

Login with Facebook Login with Google

Why sign up and log in

Guitar Tabs Explorer
Black Stone Cherry tabs for Lonely train

Guitar tabs

hey dudes hows it goin? yea anyway...i heard this song and it TOTALLY rocked so i went
look for some tabs for it but there was only 1. and it wasnt that great. cuz 1st of all
song is in drop C!!! not D!!! yea. and it wasnt complete. so here's what i think it
be. if you dont like it thats your problem. but as far as i know, this is

all right.
tuning:drop A chord diagramC majorC
/=slide up
=slide down
^()=bend to ()
h=hammer
p=pull


intro
|------------------------------------------------------------------|
|------------------------------------------------------------------|   _
|-----------------------------------------------------------|/ ---|
|-0-3--0-0-0-3--0-0-0-3-0-0---------------------------------|/ ---|
|-0-3--0-0-0-3--0-0-0-3-0-0----------------------------------------|
|-0-3--0-0-0-3--0-0-0-3-0-0-6-5-3-0-6-5-3-0-6-5-3-0-6-5-3-0--------|

|-------------------------------------------------|           |------|
|-------------------------------------------------|    _      |------|
|-------------------------------------------------|/  _| then|------|
|-------------------------------------------------|/ |_      |------|
|-------------------------------------------------|           |------|
|-6-5-3-0-6-5-3-0--0-3-5-6-5-3-0--6-5-3-0-6-5-3-0-|           |-/17-|


verse
|---------------------------------------------------------------------------|
|---------------------------------------------------------------------------|
|-------------------------------------------------------------------|/ |---|
|-------------------------------------------------------------------|/  ---|
|---------------------------------------------------------------------------|
|-3-0-0-0-5-0-0-0-3-0-0-0-5-0-0-0-3-0-0-0-5-0-0-0-5-7-10-7-5-7-10-7---------|

|-----------------------------------------------------------|
|-----------------------------------------------------------|
|-----------------------------------------------------------|
|-0-3--0-0-0-3--0-0-0-3-0-0---------------------------------|
|-0-3--0-0-0-3--0-0-0-3-0-0---------------------------------|
|-0-3--0-0-0-3--0-0-0-3-0-0-6-5-3-0-6-5-3-0-6-5-3-0-6-5-3-0-|

|----------------------------------------------------|
|----------------------------------------------------|
|----------------------------------------------------|
|-0-3--0-0-0-3--0-0-0-3-0-0--------------------------|
|-0-3--0-0-0-3--0-0-0-3-0-0--------------------------|
|-0-3--0-0-0-3--0-0-0-3-0-0-6-5-3-0-6-5-3-0-6-5--6-5-|

chorus
|---------------------------------------------------------------------|
|---------------------------------------------------------------------|
|-/7-7-7-7-7-7-7-7--5-5-5-5-5-5-5-5--4-4-4-4-4-4-4-4--3-3-3-3-3-3-3-3-|
|-/7-7-7-7-7-7-7-7--5-5-5-5-5-5-5-5--4-4-4-4-4-4-4-4--3-3-3-3-3-3-3-3-|
|-/5-5-5-5-5-5-5-5--3-3-3-3-3-3-3-3--2-2-2-2-2-2-2-2--1-1-1-1-1-1-1-1-|
|---------------------------------------------------------------------|

|------------------------------------------------------------------------------------|
|------------------------------------------------------------------------------------|
|-/7-7-7-7-7-7-7-7--9-9-9-9-9--12/14--12-12-12-12-12-12-12-12--14-12-12-10-10-9------|
|-/7-7-7-7-7-7-7-7--9-9-9-9-9--12/14--12-12-12-12-12-12-12-12--14-12-12-10-10-9------|
|-/5-5-5-5-5-5-5-5--7-7-7-7-7--10/12--10-10-10-10-10-10-10-10--12-10-10--8--8-7-7^(8)|
|------------------------------------------------------------------------------------|


verse
|---------------------------------------------------------------------------|
|---------------------------------------------------------------------------|
|-------------------------------------------------------------------|/ |---|
|-------------------------------------------------------------------|/  ---|
|---------------------------------------------------------------------------|
|-3-0-0-0-5-0-0-0-3-0-0-0-5-0-0-0-3-0-0-0-5-0-0-0-5-7-10-7-5-7-10-7---------|

|-----------------------------------------------------------|
|-----------------------------------------------------------|
|-----------------------------------------------------------|
|-0-3--0-0-0-3--0-0-0-3-0-0---------------------------------|
|-0-3--0-0-0-3--0-0-0-3-0-0---------------------------------|
|-0-3--0-0-0-3--0-0-0-3-0-0-6-5-3-0-6-5-3-0-6-5-3-0-6-5-3-0-|

|----------------------------------------------------|
|----------------------------------------------------|
|----------------------------------------------------|
|-0-3--0-0-0-3--0-0-0-3-0-0--------------------------|
|-0-3--0-0-0-3--0-0-0-3-0-0--------------------------|
|-0-3--0-0-0-3--0-0-0-3-0-0-6-5-3-0-6-5-3-0-6-5--6-5-|


chorus
|---------------------------------------------------------------------|
|---------------------------------------------------------------------|
|-/7-7-7-7-7-7-7-7--5-5-5-5-5-5-5-5--4-4-4-4-4-4-4-4--3-3-3-3-3-3-3-3-|
|-/7-7-7-7-7-7-7-7--5-5-5-5-5-5-5-5--4-4-4-4-4-4-4-4--3-3-3-3-3-3-3-3-|
|-/5-5-5-5-5-5-5-5--3-3-3-3-3-3-3-3--2-2-2-2-2-2-2-2--1-1-1-1-1-1-1-1-|
|---------------------------------------------------------------------|

|------------------------------------------------------------------------------------|
|------------------------------------------------------------------------------------|
|-/7-7-7-7-7-7-7-7--9-9-9-9-9--12/14--12-12-12-12-12-12-12-12--14-12-12-10-10-9------|
|-/7-7-7-7-7-7-7-7--9-9-9-9-9--12/14--12-12-12-12-12-12-12-12--14-12-12-10-10-9------|
|-/5-5-5-5-5-5-5-5--7-7-7-7-7--10/12--10-10-10-10-10-10-10-10--12-10-10--8--8-7-7^(8)|
|------------------------------------------------------------------------------------|

pre-solo
|--------------------------------------------------------------|
|--------------------------------------------------------------|    _
|---------------------------------------------------|/  ------|
|-----------------------------------------------------------|-| |_
|--------------------------------------------------------------|
|-3-0-0-0-5-0-0-0-6-0-0-0-3-5-6-5-0-0-3-5-6-5-0-0-3------------|

you can figger out the first solo yourself. i dont feel like it at the moment.


solo 2
|---------------------------------------------------------------|
|--------------------------------------8^(9)-6----13^(15)----15-|
|-7--5h7p5------------5-9-10-7--5h7p5----------7----------14----|
|-----------5^(6)-3-5-------------------------------------------|
|---------------------------------------------------------------|
|---------------------------------------------------------------|
|---------------------------------------------------------------|


pre-chorus
|-------------------------------------------------|
|-------------------------------------------------|
|-------------------------------------------------|
|-------------------------------------------------|
|-------------------------------------------------|
|-6-5-3-0-6-5-3-0--0-3-5-6-5-3-0--6-5-3-0-6-5-3-0-|


chorus
|---------------------------------------------------------------------|
|---------------------------------------------------------------------|
|-/7-7-7-7-7-7-7-7--5-5-5-5-5-5-5-5--4-4-4-4-4-4-4-4--3-3-3-3-3-3-3-3-|
|-/7-7-7-7-7-7-7-7--5-5-5-5-5-5-5-5--4-4-4-4-4-4-4-4--3-3-3-3-3-3-3-3-|
|-/5-5-5-5-5-5-5-5--3-3-3-3-3-3-3-3--2-2-2-2-2-2-2-2--1-1-1-1-1-1-1-1-|
|---------------------------------------------------------------------|

|------------------------------------------------------------------------------------|
|------------------------------------------------------------------------------------|
|-/7-7-7-7-7-7-7-7--9-9-9-9-9--12/14--12-12-12-12-12-12-12-12--14-12-12-10-10-9------|
|-/7-7-7-7-7-7-7-7--9-9-9-9-9--12/14--12-12-12-12-12-12-12-12--14-12-12-10-10-9------|
|-/5-5-5-5-5-5-5-5--7-7-7-7-7--10/12--10-10-10-10-10-10-10-10--12-10-10--8--8-7-7^(8)|
|------------------------------------------------------------------------------------|


outro
|------------------------------------------------------------------|
|------------------------------------------------------------------|
|------------------------------------------------------------------|
|-0-0-0-0-0-0-0-0-0-0-0-0-0-0-0-0--3-3-3-3-3-3-3-3-3-3-3-3-3-3-3-3-|
|-0-0-0-0-0-0-0-0-0-0-0-0-0-0-0-0--3-3-3-3-3-3-3-3-3-3-3-3-3-3-3-3-|
|-0-0-0-0-0-0-0-0-0-0-0-0-0-0-0-0--3-3-3-3-3-3-3-3-3-3-3-3-3-3-3-3-|

|-----------------------------------------------------------------------------|
|-----------------------------------------------------------------------------|    _
|------------------------------------------------------------------|/  ------|
|-5-5-5-5-5-5-5-5-5-5-5-5-5-5-5-5--7-7-7-7-7-7-7-7-7-7-7-7-7-7-7-7---------|-| |_
|-5-5-5-5-5-5-5-5-5-5-5-5-5-5-5-5--7-7-7-7-7-7-7-7-7-7-7-7-7-7-7-7------------|
|-5-5-5-5-5-5-5-5-5-5-5-5-5-5-5-5--7-7-7-7-7-7-7-7-7-7-7-7-7-7-7-7------------|

|-----------------------------------------------------------|
|-----------------------------------------------------------|
|-----------------------------------------------------------|
|-0-3--0-0-0-3-0-0-0-3-0-0---------------------------------|
|-0-3--0-0-0-3-0-0-0-3-0-0---------------------------------|
|-0-3--0-0-0-3-0-0-0-3-0-0-6-5-3-0-6-5-3-0-6-5-3-0-6-5-3-0-|

|---------------------------------------------------|
|---------------------------------------------------|
|---------------------------------------------------|
|---------------------------------------------------|
|---------------------------------------------------|
|-3-0-0-0-5-0-0-0-6-0-0-0-3-5-6-5-0-0-3-5-6-5-0-0-3-|


yep thats pretty much it. cept for the solo. i might do that later. iono.

comments or quiestions:
tinmufin@comcast.net
www.myspace.com/thequeerhamsterfactor
ⓘ Guitar tab for 'Lonely Train' by Black Stone Cherry, a hard rock band formed in 2001 from Kent ky, USA. Black Stone Cherry is known for their gritty rock/pop music.

Almost there ...

Sign in to get your own page with links to favourite songs and more. You are just one click away...

Login with Facebook Login with Google