Log in

One click and you are in

Login with Facebook Login with Google

Why sign up and log in

Guitar Tabs Explorer
Black Stone Cherry bass tabs for Keep on keepin on

Keep On Keepin On bass tab by Black Stone Cherry

Black Stone Cherry bass tabs for Keep on keepin on

Bass tabs

Tuning: Standard (E A D G)


🎸 Verse 1: 0:26
G|-----------------|-----------------|
D|-----------------|-----------------| x2
A|-----------------|-----------------|
E|-3-3-3-3-3-3-3-3-|-3-3-3-3-3-3-3-3-|
🎸 Prelude:
G|----------------|-------------------------|
D|----------------|-------------------------|
A|---1-1------1-1-|-8-8-8-8-8-8-8-8-8-8-8-8-|
E|-1-----1--1-----|-------------------------|

🎸 Chorus:
G|-----------------|-------------------||
D|-----------------|-------------------||
A|-----3-3-----5-5-|-----3-3-----5-5---||
E|-3-3-----0-0-----|-3-3-----0-0-----3-||

🎸 Verse 2:
G|-----------------|-----------------|
D|-----------------|-----------------| x2
A|-----------------|-----------------|
E|-3-3-3-3-3-3-3-3-|-3-3-3-3-3-3-3-3-|

🎸 Chorus:
G|-----------------|-------------------|
D|-----------------|-------------------|
A|-----3-3-----5-5-|-----3-3-----5-5---|
E|-3-3-----0-0-----|-3-3-----0-0-----3-|

🎸 Solo:
G|------------|------------|
D|------------|------------|
A|----------3-|----------3-|
E|-0--3--5----|-0--3--5----|

Resolve: 2:00
G|------------|-----------------||
D|------------|-----------------||
A|----------3-|----------3------||
E|-0--3--5----|-0--3--5----3--3-||

🎸 Outro:
G|-----------|-----------|
D|-----------|-----------| x2
A|---3--7--5-|---3--7--5-|
E|-3---------|-3---------|

G|-----------------|-----------------|
D|-----------------|-----------------|
A|-----------------|-----------------|
E|-3-3-3-3-3-3-3-3-|-3-3-3-3-3-3-3-3-|

ⓘ Bass guitar tab for 'Keep On Keepin On' by Black Stone Cherry, a hard rock band formed in 2001 from Kent ky, USA. Black Stone Cherry is known for their gritty rock/pop music.

Almost there ...

Sign in to get your own page with links to favourite songs and more. You are just one click away...

Login with Facebook Login with Google