Log in

One click and you are in

Login with Facebook Login with Google

Why sign up and log in

Guitar Tabs Explorer
Black Stone Cherry tabs for Fiesta del fuego

Guitar tabs

This is my first tab so any comments would be appreciated.I am unsure of the solo as i am tabbing this by ear

   INTRO

   A chord diagramD#D#|------------------------------------------|
   A chord diagramA#A#|------------------------------------------|
   A chord diagramF#F#|------------------------------------------| X2
   A chord diagramC#C#|------------------------------------------|
   A chord diagramG#G#|------------------------------------------|
   A chord diagramC#C#|0-8-7-0-12h10-0-10h12--0-8-7-0-12h10-0-5h3|
   Chorus

   "I think i'm gonna need a wake-up call..."
   |----------------------------------------------------------------|
   |----------------------------------------------------------------|
   |-----------------5-5-5-5-5-5-5-5--------------------------------| X2
   |-0-0-0-0-0-0-0-0-5-5-5-5-5-5-5-5-3-3-3-3-3-3-3-3-5-5-5-5-5-5-5-5|
   |-0-0-0-0-0-0-0-0-3-3-3-3-3-3-3-3-3-3-3-3-3-3-3-3-5-5-5-5-5-5-5-5|
   |-0-0-0-0-0-0-0-0-----------------3-3-3-3-3-3-3-3-5-5-5-5-5-5-5-5|

   Bridge
   "Fiesta Del Fuego....."

   |--------|
   |--------|
   |--------| (2nd time around play twice)
   |-0-5-3-0|
   |-0-5-3-0|

    Back To Intro

   After the solo the chorus is played twice then the bridge twice before returning to the intro.

ⓘ Guitar tab for 'Fiesta Del Fuego' by Black Stone Cherry, a hard rock band formed in 2001 from Kent ky, USA. Black Stone Cherry is known for their gritty rock/pop music.

Almost there ...

Sign in to get your own page with links to favourite songs and more. You are just one click away...

Login with Facebook Login with Google