Log in

One click and you are in

Login with Facebook Login with Google

Why sign up and log in

Guitar Tabs Explorer
Black Stone Cherry bass tabs for Blame it on the boom boom

Blame It On The Boom Boom bass tab by Black Stone Cherry

Black Stone Cherry bass tabs for Blame it on the boom boom

Bass tabs

Tuning: Drop C (C G C F)

Inro/Verse
F|--------|-----------------------|
C|--------|-----------------------|
G|--------|--7b--5--3--3b-----3b--| x3
C|--Wait--|----------------0------|
Pre-Chorus
F|-------------|---------------------|
C|-------------|---------------------|
G|-7b--5--3----|---------------------|
C|-----------0-|-0-0-12/-----0-0-0-0-|


Chorus
F|---------------------------------|\
C|---------------------------------| \
G|---------------------------------| \
C|-0-0-0-0-0-0-0-5~~~5-5-5-5-5-5-0-|  \
                   x2
F|--------------------------------|  /
C|--------------------------------| /
G|---------------3~~~3-3-3--------| /
C|-3-3-3-3-3-3-0-----------5-5-5/-|/

F|--------------------------------------|
C|----------------------------5-7-------|
G|-0---------0-3-0-3-4-4-5--7-----------|
C|---5-5-6-6-----------------------3--3-|


Bridge/Verse
F|--------|-----------------------|
C|--------|-----------------------|
G|--------|--7b--5--3--3b-----3b--| x5
C|--Wait--|----------------0------|

Pre-Chorus
F|-------------|---------------------|
C|-------------|---------------------|
G|-7b--5--3----|---------------------|
C|-----------0-|-0-0-12/-----0-0-0-0-|


Chorus
F|---------------------------------|\
C|---------------------------------| \
G|---------------------------------| \
C|-0-0-0-0-0-0-0-5~~~5-5-5-5-5-5-0-|  \
                    x2
F|--------------------------------|  /
C|--------------------------------| /
G|---------------3~~~3-3-3--------| /
C|-3-3-3-3-3-3-0-----------5-5-5/-|/

F|--------------------------------------|----------|
C|----------------------------5-7-------|----------|
G|-0---------0-3-0-3-4-4-5--7-----------|-7b--5--3-|
C|---5-5-6-6-----------------------3--3-|----------|


Solo
F|---------------------------------|\
C|---------------------------------| \
G|---------------------------------| \
C|-0-0-0-0-0-0-0-5~~~5-5-5-5-5-5-0-|  \
                    x2
F|--------------------------------|  /
C|--------------------------------| /
G|---------------3~~~3-3-3--------| /
C|-3-3-3-3-3-3-0-----------5---5/-|/


Break/Pre-Chorus
F|-------------|----------------|
C|-------------|----------------|
G|-------------|----------------|
C|-------------|-0-0-12/-----0--|


Chorus
F|---------------------------------|\
C|---------------------------------| \
G|---------------------------------| \
C|-0-0-0-0-0-0-0-5~~~5-5-5-5-5-5-0-|  \
                    x4
F|--------------------------------|  /
C|--------------------------------| /
G|---------------3~~~3-3-3--------| /
C|-3-3-3-3-3-3-0-----------5-5-5/-|/


Outro
F|------------------------------------|------|
C|----------------------------5-7-----|------|
G|-0---------0-3-0-3-4-4-5--7----(x3)-|------|
C|---5-5-6-6--------------------------|-3--3-|


************************************

| b Bend
| / Slide up
| ~ Vibrato
| x Dead note

************************************
ⓘ Bass guitar tab for 'Blame It On The Boom Boom' by Black Stone Cherry, a hard rock band formed in 2001 from Kent ky, USA. Black Stone Cherry is known for their gritty rock/pop music.

Almost there ...

Sign in to get your own page with links to favourite songs and more. You are just one click away...

Login with Facebook Login with Google