Search tabs and chords

Search for song, artist or band

Log in

One click and you are in

Login with Facebook Login with Google

Why sign up and log in

Guitar Tabs Explorer
Black Rebel Motorcycle Club guitar tabs for Tonights with you

Guitar tabs

Intro:
e|0--------0-0--0------0-0--|--0-0--0-0-0--0-0--|
B|-0-------0-0--0h3-0--0-0--|--0-0--1-0-0--0-0--|
G|--0------0-0--1---1--0-0--|--0-0--2-2-0--0-0--|
D|---2-----2-2--2---2--2-2--|--2-2--2-2-2--2-2--|
A|----2----2-2--0---0--2-2--|--2-2--0-0-0--2-2--|
E|-----0---0-0---------0-0--|--0-0---------0-0--|

e|--0-0--0------0-0--|--0-0--0-0-0--0-0--|
B|--0-0--0h3-0--0-0--|--0-0--1-0-0--0-0--|
G|--0-0--1---1--0-0--|--0-0--2-2-0--0-0--|
D|--2-2--2---2--2-2--|--2-2--2-2-2--2-2--|
A|--2-2--0---0--2-2--|--2-2--0-0-0--2-2--|
E|--0-0---------0-0--|--0-0---------0-0--|

e|--0-0--0------0-0--|--0-0--0-0-0--0-0--|
B|--0-0--0h3-0--0-0--|--0-0--1-0-0--0-0--|
G|--0-0--1---1--0-0--|--0-0--2-2-0--0-0--|
D|--2-2--2---2--2-2--|--2-2--2-2-2--2-2--|
A|--2-2--0---0--2-2--|--2-2--0-0-0--2-2--|
E|--0-0---------0-0--|--0-0---------0-0--|

Verse 1:
    You couldn’t tell her
e|---------------------------|--0-0---------0-0--|
B|---------------------------|--0-0--0h3-0--0-0--|
G|--0-0-0-0-0-0-0-0-0-0-0-0--|--0-0--1---1--0-0--|
D|--4-4-4-4-4-4\2-2-2-2-2-2--|--2-2--2---2--2-2--|
A|--5-5-5-5-5-5\3-3-3-3-3-3--|--2-2--0---0--2-2--|
E|--0-0-0-0-0-0-0-0-0-0-0-0--|--0-0---------0-0--|

    You couldn’t help her
e|--------------0-0-0-0-0-0--|--0-0---------0-0--|
B|--------------0-1-1-1-3-3--|--0-0--1-0-0--0-0--|
G|--0-0-0-0-0-0-0-0-0-0-0-0--|--0-0--2-2-0--0-0--|
D|--4-4-4-4-4-4\2-2-2-2-2-2--|--2-2--2-2-2--2-2--|
A|--5-5-5-5-5-5\3-3-3-3-3-3--|--2-2--0-0-0--2-2--|
E|--0-0-0-0-0-0-0-0-0-0-0-0--|--0-0---------0-0--|

Chorus 1:
    Tonight       Tonight’s with you
e|--0-0-0-0-0-0-0-0-0-0-0-0-0-0-0--|--0-0---------0-0--|
B|--1-1-1-1-3-3-3-3-1-1-1-1-1-1-1--|--0-0--0h3-0--0-0--|
G|--0-0-0-0-0-0-0-0-0-0-0-0-0-0-0--|--0-0--1---1--0-0--|
D|--2-2-2-2-2-2-2-2-2-2-2-2-2-2-2--|--2-2--2---2--2-2--|
A|--3-3-3-3-3-3-3-3-3-3-3-3-3-3-3--|--2-2--0---0--2-2--|
E|---------------------------------|--0-0---------0-0--|

    Tonight       Tonight’s with you
e|--0-0-0-0-0-0-0-0-0-0-0-0-0-0-0--|--0-0--0-0-0--0-0--|
B|--1-1-1-1-3-3-3-3-1-1-1-1-1-1-1--|--0-0--1-0-0--0-0--|
G|--0-0-0-0-0-0-0-0-0-0-0-0-0-0-0--|--0-0--2-2-0--0-0--|
D|--2-2-2-2-2-2-2-2-2-2-2-2-2-2-2--|--2-2--2-2-2--2-2--|
A|--3-3-3-3-3-3-3-3-3-3-3-3-3-3-3--|--2-2--0-0-0--2-2--|
E|---------------------------------|--0-0---------0-0--|

Interlude:
e|0--------0-0--0------0-0--|--0-0--0-0-0--0-0--|
B|-0-------0-0--0h3-0--0-0--|--0-0--1-0-0--0-0--|
G|--0------0-0--1---1--0-0--|--0-0--2-2-0--0-0--|
D|---2-----2-2--2---2--2-2--|--2-2--2-2-2--2-2--|
A|----2----2-2--0---0--2-2--|--2-2--0-0-0--2-2--|
E|-----0---0-0---------0-0--|--0-0---------0-0--|

e|--0-0--0------0-0--|--0-0--0-0-0--0-0--|
B|--0-0--0h3-0--0-0--|--0-0--1-0-0--0-0--|
G|--0-0--1---1--0-0--|--0-0--2-2-0--0-0--|
D|--2-2--2---2--2-2--|--2-2--2-2-2--2-2--|
A|--2-2--0---0--2-2--|--2-2--0-0-0--2-2--|
E|--0-0---------0-0--|--0-0---------0-0--|

e|--0-0--0------0-0--|--0-0--0-0-0--0-0--|
B|--0-0--0h3-0--0-0--|--0-0--1-0-0--0-0--|
G|--0-0--1---1--0-0--|--0-0--2-2-0--0-0--|
D|--2-2--2---2--2-2--|--2-2--2-2-2--2-2--|
A|--2-2--0---0--2-2--|--2-2--0-0-0--2-2--|
E|--0-0---------0-0--|--0-0---------0-0--|

Verse 2:
    You couldn’t fill her
e|--------0-0-0-------0-0-0--|--0-0---------0-0--|
B|--------3-3-3-0-0-0-1-1-1--|--0-0--0h3-0--0-0--|
G|--0-0-0-0-0-0-0-0-0-0-0-0--|--0-0--1---1--0-0--|
D|--4-4-4-4-4-4\2-2-2-2-2-2--|--2-2--2---2--2-2--|
A|--5-5-5-5-5-5\3-3-3-3-3-3--|--2-2--0---0--2-2--|
E|--0-0-0-0-0-0-0-0-0-0-0-0--|--0-0---------0-0--|

    You couldn’t kill her
e|--0-0-0-0-0-0-0-0-0-0-0-0-0--|--0-0---------0-0--|
B|--3-3-3-3-3-3\1-1-3-3-3/5-5--|--0-0--1-0-0--0-0--|
G|--0-0-0-0-0-0-0-0-0-0-0-0-0--|--0-0--2-2-0--0-0--|
D|--4-4-4-4-4-4\2-2-2-2-2-0-0--|--2-2--2-2-2--2-2--|
A|--5-5-5-5-5-5\3-3-3-3-3/5-5--|--2-2--0-0-0--2-2--|
E|--0-0-0-0-0-0-0-0-0-0-0-0-0--|--0-0---------0-0--|

Chorus 2:
    Tonight       Tonight’s with you
e|--0-0-0-0-3-3-3-3-3-0-0-0-0-0-0--|--0-0---------0-0--|
B|--1-1-1-1-1-1-1-1-1-1-1-1-1-1-1--|--0-0--0h3-0--0-0--|
G|--0-0-0-0-0-0-0-0-0-0-0-0-0-0-0--|--0-0--1---1--0-0--|
D|--2-2-2-2-2-2-2-2-2-2-2-2-2-2-2--|--2-2--2---2--2-2--|
A|--3-3-3-3-3-3-3-3-3-3-3-3-3-3-3--|--2-2--0---0--2-2--|
E|---------------------------------|--0-0---------0-0--|

    Tonight       Tonight’s with you
e|--0-0-0-0-0-0-0-0-0-0-0-0-0-0-0--|--0-0--0-0-0--0-0--|
B|--1-1-1-1-3-3-3-3-1-1-1-1-1-1-1--|--0-0--1-0-0--0-0--|
G|--0-0-0-0-0-0-0-0-0-0-0-0-0-0-0--|--0-0--2-2-0--0-0--|
D|--2-2-2-2-2-2-2-2-2-2-2-2-2-2-2--|--2-2--2-2-2--2-2--|
A|--3-3-3-3-3-3-3-3-3-3-3-3-3-3-3--|--2-2--0-0-0--2-2--|
E|---------------------------------|--0-0---------0-0--|

Interlude:
e|0--------0-0--0------0-0--|--0-0--0-0-0--0-0--|
B|-0-------0-0--0h3-0--0-0--|--0-0--1-0-0--0-0--|
G|--0------0-0--1---1--0-0--|--0-0--2-2-0--0-0--|
D|---2-----2-2--2---2--2-2--|--2-2--2-2-2--2-2--|
A|----2----2-2--0---0--2-2--|--2-2--0-0-0--2-2--|
E|-----0---0-0---------0-0--|--0-0---------0-0--|

e|--0-0--0------0-0--|--0-0--0-0-0--0-0--|
B|--0-0--0h3-0--0-0--|--0-0--1-0-0--0-0--|
G|--0-0--1---1--0-0--|--0-0--2-2-0--0-0--|
D|--2-2--2---2--2-2--|--2-2--2-2-2--2-2--|
A|--2-2--0---0--2-2--|--2-2--0-0-0--2-2--|
E|--0-0---------0-0--|--0-0---------0-0--|

e|--0-0--0------0-0--|--0-0--0-0-0--0-0--|
B|--0-0--0h3-0--0-0--|--0-0--1-0-0--0-0--|
G|--0-0--1---1--0-0--|--0-0--2-2-0--0-0--|
D|--2-2--2---2--2-2--|--2-2--2-2-2--2-2--|
A|--2-2--0---0--2-2--|--2-2--0-0-0--2-2--|
E|--0-0---------0-0--|--0-0---------0-0--|

Bridge:
   It’s like a tear falling
e|-0-0-0-0-0-0-0-0-0-0-0-0-0-0--|
B|-1-1-1-1-1-1-1-1-1-1-1-1-1-1--|
G|-2-2-2-2-2-2-2-0-0-0-0-0-0-0--|
D|-3-3-3-3-3-3-3-2-2-2-2-2-2-2--|
A|-3-3-3-3-3-3-3-0-0-0-0-0-0-0--|
E|------------------------------|

   It's like a dream always
e|-0-0-0-0-0-0-0-0-0-0-0-0-0-0--|
B|-1-1-1-1-1-1-1-1-1-1-1-1-1-1--|
G|-2-2-2-2-2-2-2-0-0-0-0-0-0-0--|
D|-3-3-3-3-3-3-3-2-2-2-2-2-2-2--|
A|-3-3-3-3-3-3-3-0-0-0-0-0-0-0--|
E|------------------------------|

   It's like a dream
e|-0-0-0-0-0-0-0-0-0-0---|
B|-1-1-1-1-1-1-1-1-1-1---|
G|-2-2-2-2-2-2-2-2-2-2---|
D|-3-3-3-3-3-3-3-3-3-3---|
A|-3-3-3-3-3-3-3-3-3-3---|
E|-----------------------|

[   Gone Away
e|-0-0-0-0--0-0-0-0--0-0-0-0-0-|
B|-1-1-1-1--1-1-1-1--0-0-0-0-0-|
G|-2-2-2-2--0-0-0-0--0-0-0-0-0-|
D|-3-3-3-3--3-3-3-3--2-2-2-2-2-|
A|-3-3-3-3--3-3-3-3--2-2-2-2-2-|
E|-----------------------------|

   Gone Away
e|-0-0-0-0--0-0-0-0--0-0-0-0-0-|
B|-1-1-1-1--1-1-1-1--0-0-0-0-0-|
G|-0-0-0-0--0-0-0-0--0-0-0-0-0-|
D|-3-3-3-3--0-0-0-0--2-2-2-2-2-|
A|-3-3-3-3--3-3-3-3--2-2-2-2-2-|
E|-----------------------------| X2

Interlude:
e|0--------0-0--0------0-0--|--0-0--0-0-0--0-0--|
B|-0-------0-0--0h3-0--0-0--|--0-0--1-0-0--0-0--|
G|--0------0-0--1---1--0-0--|--0-0--2-2-0--0-0--|
D|---2-----2-2--2---2--2-2--|--2-2--2-2-2--2-2--|
A|----2----2-2--0---0--2-2--|--2-2--0-0-0--2-2--|
E|-----0---0-0---------0-0--|--0-0---------0-0--|

e|--0-0--0------0-0--|--0-0--0-0-0--0-0--|
B|--0-0--0h3-0--0-0--|--0-0--1-0-0--0-0--|
G|--0-0--1---1--0-0--|--0-0--2-2-0--0-0--|
D|--2-2--2---2--2-2--|--2-2--2-2-2--2-2--|
A|--2-2--0---0--2-2--|--2-2--0-0-0--2-2--|
E|--0-0---------0-0--|--0-0---------0-0--|

e|--0-0--0------0-0--|--0-0--0-0-0--0-0--|
B|--0-0--0h3-0--0-0--|--0-0--1-0-0--0-0--|
G|--0-0--1---1--0-0--|--0-0--2-2-0--0-0--|
D|--2-2--2---2--2-2--|--2-2--2-2-2--2-2--|
A|--2-2--0---0--2-2--|--2-2--0-0-0--2-2--|
E|--0-0---------0-0--|--0-0---------0-0--|

Verse 3:
    You couldn’t love her
e|--------------0-0-0-0-0-0--|--0-0---------0-0--|
B|--------------0-1-1-1-3-3--|--0-0--1-0-0--0-0--|
G|--0-0-0-0-0-0-0-0-0-0-0-0--|--0-0--2-2-0--0-0--|
D|--4-4-4-4-4-4\2-2-2-2-2-2--|--2-2--2-2-2--2-2--|
A|--5-5-5-5-5-5\3-3-3-3-3-3--|--2-2--0-0-0--2-2--|
E|--0-0-0-0-0-0-0-0-0-0-0-0--|--0-0---------0-0--|

    You couldn’t kill her
e|--0-0-0-0-0-0-0-0-0-0-0-0-0--|--0-0---------0-0--|
B|--3-3-3-3-3-3\1-1-3-3-3/5-5--|--0-0--1-0-0--0-0--|
G|--0-0-0-0-0-0-0-0-0-0-0-0-0--|--0-0--2-2-0--0-0--|
D|--4-4-4-4-4-4\2-2-2-2-2-0-0--|--2-2--2-2-2--2-2--|
A|--5-5-5-5-5-5\3-3-3-3-3/5-5--|--2-2--0-0-0--2-2--|
E|--0-0-0-0-0-0-0-0-0-0-0-0-0--|--0-0---------0-0--|

Chorus 3:
    Tonight       Tonight’s with you
e|--0-0-0-0-0-0-0-0-0-0-0-3-3-3-3--|--0-0---------0-0--|
B|--1-1-1-1-3-3-3-3-1-1-1-1-1-1-1--|--0-0--0h3-0--0-0--|
G|--0-0-0-0-0-0-0-0-0-0-0-0-0-0-0--|--0-0--1---1--0-0--|
D|--2-2-2-2-2-2-2-2-2-2-2-2-2-2-2--|--2-2--2---2--2-2--|
A|--3-3-3-3-3-3-3-3-3-3-3-3-3-3-3--|--2-2--0---0--2-2--|
E|---------------------------------|--0-0---------0-0--|

    Tonight       Tonight’s with you
e|--0-0-0-0-0-0-0-0-0-0-0-0-0-0-0--|--0-0--|
B|--1-1-1-1-3-3-3-3-1-1-1-1-1-1-1--|--0-0--|
G|--0-0-0-0-0-0-0-0-0-0-0-0-0-0-0--|--0-0--|
D|--2-2-2-2-2-2-2-2-2-2-2-2-2-2-2--|--2-2--|
A|--3-3-3-3-3-3-3-3-3-3-3-3-3-3-3--|--2-2--|
E|---------------------------------|--0-0--|

Other versions of Tonights With You

Tonights with youChords

Almost there ...

Sign in to get your own page with links to favourite songs and more. You are just one click away...

Login with Facebook Login with Google