Search tabs and chords

Search for song, artist or band

Log in

One click and you are in

Login with Facebook Login with Google

Why sign up and log in

Guitar Tabs Explorer
Black Rebel Motorcycle Club guitar tabs for Lullaby

Guitar tabs with lyrics

RIFF 1

E|--------------------------------------------------|
B|---0--1--3--3-----12--12--12--12--12--12---0------|
G|0--0--0--0--0------x---x---x---x---x---x---x------|
D|0--0--0--0--0------0---0---0---0---0---0---0------|
A|0--0--0--2--2-----10--10--10--10--10--10---10-----|
E|3-------------------------------------------------|

RIFF 2

E|---------------------------------------------------|
B|---1--3--5--5-----12--12--12--12--12--12--0--------|
G|0--0--0--0--0------x---x---x---x---x---x--x--------|
D|0--0--0--0--0------0---0---0---0---0---0--0--------|
A|0--0--0--0--3-----10--10--10--10--10--10--10-------|
E|3--------------------------------------------------|
Intro: Riff 1 (3x) + Riff 2


RIFF 1 (3x) + RIFF 2
You are the sun to the earth
You are the light of this world
Won't you see
Why won't you see
You are an arm I can't reach
You are the words I can't speak
Won't you say
Why won't you say


D chord diagramDD I will walk till C chord diagramCC I've no shadow  Riff 1
D chord diagramDD I will walk till C chord diagramCC I've no shadow  Riff 1


C chord diagramCC You twist the light in your G chord diagramGG hands
Losing C chord diagramCC thoughts so you move you can't G chord diagramGG give
Reasons C chord diagramCC fall from every storm that you G chord diagramGG lived
We move through the Em chord diagramEmEm dark D chord diagramDD , C chord diagramCC helpless


RIFF 1 (3x) + RIFF 2
You are the quiet in my soul
You are the pieces of gold
Won't you shine
Why won't you shine

D chord diagramDD I will walk till C chord diagramCC I've no shadow   Riff 1
D chord diagramDD I will walk till C chord diagramCC I've no shadow   Riff 1
D chord diagramDD I will walk till C chord diagramCC I've no shadow   Riff 1
D chord diagramDD I will walk till C chord diagramCC I've no shadow   Riff 1

(Em chord diagramEmEm  D chord diagramDD  C chord diagramCC  G chord diagramGG)(4x)

Almost there ...

Sign in to get your own page with links to favourite songs and more. You are just one click away...

Login with Facebook Login with Google