Log in

One click and you are in

Login with Facebook Login with Google

Why sign up and log in

Guitar Tabs Explorer
Black Rebel Motorcycle Club guitar tabs for Hate the taste

Hate The Taste tab by Black Rebel Motorcycle Club

Black Rebel Motorcycle Club guitar tabs for Hate the taste

Guitar tabs

Intro & verse:
E|--------------------------|
B|--------------------------|
G|--------------------------|
D|--------------------------|
A|------------3-1-----------|
E|-1-1-3-1--1-----3-1-3-----|

Chorus(I wanna ride with you...):
E|--------------------------|
B|-3-3-3-3------------------|
G|--------------------------|     3 x
D|----------5-x-------------|
A|--------------------------|
E|--------------------------|

E|--------------------------|
B|--------------------------|
G|-5b-5--3-4-3-0------------|
D|--------------------------|
A|--------------------------|
E|--------------------------|

Bridge (I'm a mess...)
E|-------------------------------------------------------------|
B|-3-3-0-3-3-3-0-3-3-0-3-3-3-0-3-3-0-3-3-3-0-------------------|
G|-3-3-0-3-3-3-0-3-3-0-3-3-3-0-3-3-0-3-3-3-0-5b-5b-5b-5b-5b----|   3 x
D|-3-3-0-3-3-3-0-3-3-0-3-3-3-0-3-3-0-3-3-3-0-------------------|
A|-------------------------------------------------------------|
E|-------------------------------------------------------------|

E|--------------------------|
B|-3------3-----------------|
G|--------------------------|     3 x
D|----5x-----5-x------------|
A|--------------------------|
E|--------------------------|

E|--------------------------|
B|--------------------------|
G|-5b-5--3-4-3-0------------|
D|--------------------------|
A|--------------------------|
E|--------------------------|

Almost there ...

Sign in to get your own page with links to favourite songs and more. You are just one click away...

Login with Facebook Login with Google