Search tabs and chords

Search for song, artist or band

Log in

One click and you are in

Login with Facebook Login with Google

Why sign up and log in

Guitar Tabs Explorer
Black Rebel Motorcycle Club bass tabs for Echo

Bass tabs

Tuning: Standard (E A D G)

Difficulty: Intermediate


Intro: 0:00
G|----11\---6-----------4-------|
D|-/12----7---7-7\5-5-5----5--5-|
A|------------------------------|
E|------------------------------|

G|----11\---6---------------4---|
D|-/12----7---7-7\5-5-5-5-----5-|
A|------------------------------|
E|------------------------------|

Verse 1: 0:13
G|----11\---6-----------4-------|
D|-/12----7---7-7\5-5-5----5--5-|
A|------------------------------|
E|------------------------------| x2

G|----11\---6-----------4-------|
D|-/12----7---7-7\5-5-5---5-5-5-|
A|------------------------------|
E|------------------------------| x3

G|----11\---6-----------4-------|
D|-/12----7---7-7\5-5-5---5---5-|
A|------------------------------|
E|--------------------------3---| x4

Chorus 1: 1:00
G|-------------------------------------------------|
D|-11-11-11-11-12-12-12-12-14-14-14-14-14-17-16-14-|
A|-------------------------------------------------|
E|-------------------------------------------------|

G|-------------------------------------10h11111214-| *(Tricky, played fast; 10h11-11-12-14)
D|-9-9-9-9-9-9-9-9-7/9\7-7-7-7-7-7-7-7-------------|
A|-------------------------------------------------|
E|-------------------------------------------------| x4

Verse 2: 1:41
G|----11\---6-----------4-------|
D|-/12----7---7-7\5-5-5----5--5-|
A|------------------------------|
E|------------------------------|

G|----11\---6---------------4---|
D|-/12----7---7-7\5-5-5-5-----5-|
A|------------------------------|
E|------------------------------|

G|----11\---6-----------4-------|
D|-/12----7---7-7\5-5-5---5-5-5-|
A|------------------------------|
E|------------------------------| x4

G|----11\---6-----------4-------|
D|-/12----7---7-7\5-5-5---5---5-|
A|------------------------------|
E|--------------------------3---| x4

G|----11\---6-----------4-------|
D|-/12----7---7-7\5-5-5---5-5-5-|
A|------------------------------|
E|------------------------------|

Chorus 2: 2:39
G|-------------------------------------------------|
D|-11-11-11-11-12-12-12-12-14-14-14-14-14-17-16-14-|
A|-------------------------------------------------|
E|-------------------------------------------------|

G|-------------------------------------10h11111214-| *(Tricky, played fast; 10h11-11-12-14)
D|-9-9-9-9-9-9-9-9-7/9\7-7-7-7-7-7-7-7-------------|
A|-------------------------------------------------|
E|-------------------------------------------------| x4

Bridge: 3:20
G|-------------------------------------------------|
D|-11-11-11-11-12-12-12-12-14-14-14-14-14-14-14-14-|
A|-------------------------------------------------|
E|-------------------------------------------------|

G|-------------------------------------------------|
D|-------------------------------------------------|
A|-------------------------------------5-5-5-5-5-5-|
E|-3-3-3-3-3-3-3-3-3/7-7-7-7-7-7-7-7-7-------------|

G|-------------------------------------------------|
D|-------------------------------------------------|
A|-5-5---------------------------------------------|
E|-----10-9\5-5-5-5-5-5-5-5-3-3-3-3-3-3-3-3-3/7-7--|

G|--------------------9-9-7-6----------------------|
D|--7/9\7------------------------------------------|
A|--------9-7-5-5-5-5------------------------------|
E|-7--------------------------5-5-5-5-5-5-5-5-3-3--|

G|---------------------------------------9-9-7-6---|
D|---------------------7/9\7-----------------------|
A|--------------------------9-7-5-5-5-5------------|
E|-3-3-3-3-3-3-3/7-7-7-----------------------------|

G|-------------------------------------------------|
D|-----------------------------------------7/9\7---|
A|-----------------------------------------------9-|
E|-5-5-5-5-5-5-5-5-3-3-3-3-3-3-3-3-3/7-7-7---------|

G|-------------------------------------------------|
D|-------------------------------------------------|
A|-7-5-5-5-5-5-5-5-5-------------------------------|
E|-------------------5-5-5-5-5-5-5-5-3-3-3-3-3-3-3-|

G|-------------------------------9-9-7-6-----------|
D|-------------7/9\7-------------------------------|
A|-------------------9-7-5-5-5-5-------------------|
E|-3-3/7-7-7-7---------------------------5-5-5-5-5-|

G|---------------------------------------------9-9-|
D|-------------------------------7/9\7-------------|
A|-------------------------------------9-5-5-5-----|
E|-5-5-5-3-3-3-3-3-3-3-3-3/7-7-7-------------------|

G|-7-6---|
D|-------|
A|-------|
E|-----5-|

Outro: 4:23
G|-18-19-16-14~-|
D|--------------|
A|--------------|
E|--------------|

G|-------------------16-18/-|
D|-11-12-14-16-17-19--------|
A|--------------------------|
E|--------------------------| x2

(The Bass track then splits into two bits.
You can play either, but here's how I play it:)

4:30
G|-19-18-16-14--------------|
D|-------------17-16-14-12--|
A|--------------------------|
E|--------------------------| x2

G|-------------------16-18/-|
D|-11-12-14-16-17-19--------|
A|--------------------------|
E|--------------------------| x2

G|-19-18-16-14--------------|
D|-------------17-16-14-12--|
A|--------------------------|
E|--------------------------| x2

G|-------------------16-18/-|
D|-11-12-14-16-17-19--------|
A|--------------------------|
E|--------------------------| x2

G|-19-18-16-14--------------|
D|-------------17-16-14-12--|
A|--------------------------|
E|--------------------------| x2

G|-------------------16-18/-|
D|-11-12-14-16-17-19--------|
A|--------------------------|
E|--------------------------| x2

G|-19-18-16-14--------------|
D|-------------17-16-14-12--|
A|--------------------------|
E|--------------------------| x2


************************************

| /   slide up
| \   slide down
| h   hammer on
| ~   vibrato

************************************

Almost there ...

Sign in to get your own page with links to favourite songs and more. You are just one click away...

Login with Facebook Login with Google