Search tabs and chords

Search for song, artist or band

Log in

One click and you are in

Login with Facebook Login with Google

Why sign up and log in

Guitar Tabs Explorer
Black Rebel Motorcycle Club bass tabs for Conscience killer

Conscience Killer bass tab by Black Rebel Motorcycle Club

Black Rebel Motorcycle Club bass tabs for Conscience killer

Bass tabs

Black Rebel Motorcycle Club - Conscience Killer

Tuning: Standard EADG
Intro - oh oh's
|--------------|
|--------------|
|--------------| play this 'til verse
|-77777777777--|

Verse - "I'm a constant..."
|----------------------------|
|----------------------------|
|----------------------------|x3
|-7777777777777101010999-----|

Chorus
|----------------------------------------|
|-777-66--------------777-99-------------|
|-555-44--------------555-77-------------|x2
|--------5h777777777---------5h77777777--|

Post-Chorus                        you can play it with the E chord
|-------------------------------|  |--9999999999999999-----|
|-------------------------------|  |--9999999999999999-----|
|-7777777777777777777777777-----|  |--7777777777777777-----|
|---------------------------7\--|  |-------------------7\--|

Guitar break

Again verse

Chorus

Post chorus

"Don't want no conscience..."
|----------------------------|
|----------------------------|
|--10101010101010-777777777--|
|----------------------------|

A very short pause, then...
|-----------|
|-9~---9~---|
|-----------|
|-----------|

oh oh's part
|---------------------------------|
|---------------------------------|
|---------------------------------|
|-7777777777777777777777777-etc---|

Another break
|----------------------------------|
|----------------------------------|
|----------------------------------|x2
|--/7/10\--/7/10\--/7/10\--/7/10\--|

Verse

Chorus

Post chorus

"Don't want no conscience at all" Part

Last Riff
|--------------|
|--------------| Not sure about this one :S
|--------5-----|
|-/7-757---75--|

Almost there ...

Sign in to get your own page with links to favourite songs and more. You are just one click away...

Login with Facebook Login with Google