Search tabs and chords

Search for song, artist or band

Log in

One click and you are in

Login with Facebook Login with Google

Why sign up and log in

Guitar Tabs Explorer
Black Rebel Motorcycle Club bass tabs for Circus bazooko

Circus Bazooko bass tab by Black Rebel Motorcycle Club

Black Rebel Motorcycle Club bass tabs for Circus bazooko

Bass tabs

Tuning: Standard (E A D G)

Difficulty: Intermediate


Intro: 0:00
G|----------------------------------------------------|
D|---------------------------------5------5-----5-----|
A|----------------------------3-3----3-3----3-3---3---|
E|-3-3--3-3-3--3-3-3--3-6-3~------------------------1-| x2

Verse 1: 0:24
G|----------------------------------------------------|
D|---------------------------------5------5-----5-----|
A|----------------------------3-3----3-3----3-3---3---|
E|-3-3--3-3-3--3-3-3--3-3-3-------------------------1-|

G|----------------------------------------------------|
D|---------------------------------5------5------5----|
A|------------------------1----3-3----3-3----3-3---3--|
E|-3-3--1h3-3-3--3-3-3--3---3~-----------------------1|

Pre-chorus: 0:48
G|----------------------------------------------------------|
D|----------------------------------5------5------5---------|
A|-----------------------------3-3----3-3----3-3----3-3--1--|
E|-3-3--1h3-3-3--1h3-3-3--1h3~------------------------------|

G|----------------------------------------------------------|
D|------------------------5------5------5-------------------|
A|---------------------3----3-3----3-3----3-3--3------------|
E|-3--10/3--10/3--10/3---------------------------1----------|

Verse 2: 1:12
G|---------------------------------------------------|
D|--------------------------------5------5-----5-----|
A|---------------------------3-3----3-3----3-3---3---|
E|-3-3--3-3-3--3-3-3--3~-6-3-----------------------1-|

G|--------------------------------------------------------|
D|-------------------------------------5------5-----5-----|
A|-------------------------1-1----3-3----3-3----3-3---3---|
E|-3-3--1h3-3-3--3-3-3--1h3-3-3-------------------------1-|

Pre-chorus 2: 1:35
G|------------------------------------------------------------|
D|-------------------------------------5------5------5--------|
A|---------------------------1-1----3----3-3----3-3----3-3--1-|
E|-3-3--1h3-3-3--1h3-3-3--1h3-3-3-----------------------------|

G|--------------------------------------------------------------|
D|----------------------------------5------5------5-------------|
A|------------------------1-1----3----3-3----3-3----3-3--3------|
E|-3--10/3--10/3--10/3-1h3-3-3-----------------------------1----|

Chorus 1: 1:59
G|---------------------------------|
D|-5~--5/12~--12/10~--10/17~--17/5-|
A|---------------------------------|
E|---------------------------------| x3

G|--------------------------------------------------------|
D|---5-12/5---5----12/5----------17/-----5-----17/--5-----|
A|---------------------------3-3-----3-3----3-3-------3---|
E|-3--------3---3-3-----3-3-----------------------------1-| x2

Solo: 3:00
G|---------------------------------------------------|
D|--------------------------------5------5-----5-----|
A|---------------------------3-3----3-3----3-3---3---|
E|-3-3--3-3-3--3-3-3--3-3-3------------------------1-|

Verse 3: 3:12
G|----------------------------------------------------|
D|---------------------------------5------5-----5-----|
A|-----------------------1-1--3-3----3-3----3-3---3---|
E|-3-3--3-3-3--3-3-3--1h3-3-3-----------------------1-|

G|----------------------------------------------------|
D|---------------------------------5------5-----5-----|
A|-----------------------1-1--3-3----3-3----3-3---3-3-|
E|-3-3--3-3-3--3-3-3--1h3-3-3-------------------------|

Chorus 2: 3:35
G|---------------------------------|
D|-5~--5/12~--12/10~--10/17~--17/5-|
A|---------------------------------|
E|---------------------------------| x2

Solo 2: 4:00
G|-----------------------------------------------------------|
D|------------------------------x-17/----x-5----x-17/----x-5-|
A|----1-------------1-----1--3-3-------3-3---3-3------3-3----|
E|-3-3-3-1-3-1-3-3-3-3-1h3-3---------------------------------|

G|-----------------------------------------------------------|
D|-------------------------------17/----x------17/---x-5-----|
A|----1-------------1-----1--3-3----3-3--1-3-3----3-3--------|
E|-3-3-3-1-3-1-3-3-3-3-1-3-3---------------------------------|  x2

G|-----------------------------------------------------------|
D|------------------------------x-17/----x-5----x-17/----x-5-|
A|----1-------------1-----1--3-3-------3-3---3-3------3-3----|
E|-3-3-3-1-3-1-3-3-3-3-1h3-3---------------------------------|

G|----|
D|----|
A|----|
E|-3~-|

Outro: 5:10
(Lightly)

G|-------------------------------------------------------3h5---|
D|--------------15-17-15-17-------15-17/20-20/--5---5---5------|
A|--3-8-10/15-17------------15-17-------------3--33--33-----3/-|
E|-------------------------------------------------------------|


************************************

 h   - hammer-on
 b   - bend
 /   - slide
 x   - muted note

************************************

Almost there ...

Sign in to get your own page with links to favourite songs and more. You are just one click away...

Login with Facebook Login with Google