Search tabs and chords

Search for song, artist or band

Log in

One click and you are in

Login with Facebook Login with Google

Why sign up and log in

Guitar Tabs Explorer
Black Rebel Motorcycle Club guitar tabs for Beat the devils tattoo

Beat The Devils Tattoo tab by Black Rebel Motorcycle Club

Black Rebel Motorcycle Club guitar tabs for Beat the devils tattoo

Guitar tabs

Intro & Verse

E|0--------------------------------------------------------0--------|
B|0--------------------------------------------------------0--------|
G|0--------------------------------------------0-----------0--------|
E|0-3-5-7--7--7-10-7-5-3--0--12--9--7--0--5--5---5-7-5--3--0--------|
B|0---------------------------------------5--5---5---5--3--0--------|
E|0---------------------------------------5--5---5---5--3--0--------|

Chorus

E|0---------------------------0--------------------0--------------|
B|0---------------------------0--------------------0--------------|
G|0---------------------------0--------------------0--------------|
E|0---------------3-----------0-3-5-7--7--7-10-7-3-0--------------|
B|0---------------------------0-3-5-7--7--7----7-3-0--------------|
E|0-3-5-3--0--0-----0-3-0--0--0-3-5-7--7--7----7-3-0--------------|

Bridge

E|0--------------------------------------------------|
B|0--------------------------------------------------|
G|0--------------------------------------------------|       3x
E|0-5b--3-0-5-5-5-5--3-3-3--2-2-2--0-0-0-0-----------|
B|0---------5-5-5-5--3-3-3--2-2-2--0-0-0-0-----------|
E|0---------5-5-5-5--3-3-3--2-2-2--0-0-0-0-----------|

E|0--------------------0----------|
B|0--------------------0----------|
G|0--------------------0----------|       1x
E|0-3-0-7--7--7-10-7-3-0----------|
B|0-3-0-7--7--7----7-3-0----------|
E|0-3-0-7--7--7----7-3-0----------|

Final
E|x-x-x-x-x--x-x-x-x-----|
B|3-3-3-3-x--3-3-3-3-----|
G|0-0-0-0-x--0-0-0-0-----|         8x
E|-------------------3---|
B|-----------------------|
E|-----------------------|

E|0------------------------------|
B|0------------------0-15-14-0---|
G|0------------------------------|       4x
E|0------------------------------|
B|0--------------3-0-------------|
E|0-3-5b-5-0-3-0-----------------|

Beat The Devils Tattoo tab

Black Rebel Motorcycle Club guitar tabs for Beat the devils tattoo "Beat the devil's tattoo" is the opening and title track of Black Rebel Motorcycle Club's sixth studio album.

Almost there ...

Sign in to get your own page with links to favourite songs and more. You are just one click away...

Login with Facebook Login with Google