Search tabs and chords

Search for song, artist or band

Log in

One click and you are in

Login with Facebook Login with Google

Why sign up and log in

Guitar Tabs Explorer
Black Pistol Fire guitar tabs for Lost cause

Guitar tabs

Lost cause - Black Pistol Fire - Deadbeat Graffiti

Tuning: DADGBE

Intro:

  Gtr 1:
e|-------------------------------------------------------------------|
B|-------------------------------------------------------------------|
G|-------------------------------------------------------------------|
D|-------------------------------------------------------------------| X 2
A|-------------------------------------------------------------------|
D|-0-0-0–0-7-7-7-7-8-8-8-8-3-3-3-3-5-5-5-5-5-5-5-5-5-5-5-5-5-5-5-5-5-|

  Gtr 2:
e|-----5-------5-------6-------1---3~---------------------|
B|---6-------5-------6-------1-----3~---------------------|
G|-7-----7-6-----6-7-----7-2-----2-3~---------------------| Played second on the time
D|--------------------------------------------------------|
A|--------------------------------------------------------|
D|--------------------------------------------------------|

Chorus:

e|-------------------------------------------------------|
B|-------------------------------------------------------|
G|------5------------5-----5----5---5---5---7--7---------| X 2
D|----7---7--7---5h7---5-7-----(3)-(3)-(3)--5--5--7--5---|
A|----5---5--5---5--------------3---3---3---5--5---------|
D|-0~~~----------------------3~~~-----------5------------|


Verse:
  Gtr 1:
e|-----------------------------3-----------3------|
B|-----------------------------3-----------3------|
G|-----------------------------3-----------3------|
D|------------------------------------------------| X 4
A|------------------------------------------------|
D|-0-0---7-7---8-8---3-3---5-5---5-5---5-5---5-5--|

 Gtr 2:
e|--10~~---|
B|--10~~---| Played on beat 1 of each repeat
G|--10~~---|
D|--12~~---|
A|---------|
D|---------|

Bridge:

  Gtr 1:
e|-------------------------------------------------------------------|
B|-------------------------------------------------------------------|
G|-------------------------------------------------------------------|
D|-------------------------------------------------------------------| X 2
A|-------------------------------------------------------------------|
D|-0-0-0–0-7-7-7-7-8-8-8-8-3-3-3-3-5-5-5-5-5-5-5-5-5-5-5-5-5-5-5-5-5-|

 Gtr 2:
e|-----5-------5-------6-------1-------3-----3-----3-----3-|
B|---6-------5-------6-------1-------3––3--3––3--3––3--3---|
G|-7-----7-6-----6-7-----7-2-----2-3-----3-----3-----3-----| X 2
D|---------------------------------------------------------|
A|---------------------------------------------------------|
D|---------------------------------------------------------|

Chorus:

e|-------------------------------------------------------|
B|-------------------------------------------------------|
G|------5------------5-----5----5---5---5---7--7---------| X 4
D|----7---7--7---5h7---5-7-----(3)-(3)-(3)--5--5--7--5---|
A|----5---5--5---5--------------3---3---3---5--5---------|
D|-0~~~----------------------3~~~-----------5------------|

Verse 2:
  Gtr 1:
e|-----------------------------3-----------3------|
B|-----------------------------3-----------3------|
G|-----------------------------3-----------3------|
D|------------------------------------------------| X 4
A|------------------------------------------------|
D|-0-0---7-7---8-8---3-3---5-5---5-5---5-5---5-5--|

 Gtr 2:
e|--10~~---|
B|--10~~---| Played on beat 1 of each repeat
G|--10~~---|
D|--12~~---|
A|---------|
D|---------|

Bridge:

  Gtr 1:
e|-------------------------------------------------------------------|
B|-------------------------------------------------------------------|
G|-------------------------------------------------------------------|
D|-------------------------------------------------------------------| X 2
A|-------------------------------------------------------------------|
D|-0-0-0–0-7-7-7-7-8-8-8-8-3-3-3-3-5-5-5-5-5-5-5-5-5-5-5-5-5-5-5-5-5-|

 Gtr 2:
e|-----5-------5-------6-------1-------3-----3-----3-----3-|
B|---6-------5-------6-------1-------3––3--3––3--3––3--3---|
G|-7-----7-6-----6-7-----7-2-----2-3-----3-----3-----3-----| X 2
D|---------------------------------------------------------|
A|---------------------------------------------------------|
D|---------------------------------------------------------|

Chorus:

e|-------------------------------------------------------|
B|-------------------------------------------------------|
G|------5------------5-----5----5---5---5---7--7---------| X 4
D|----7---7--7---5h7---5-7-----(3)-(3)-(3)--5--5--7--5---|
A|----5---5--5---5--------------3---3---3---5--5---------|
D|-0~~~----------------------3~~~-----------5------------|

 Solo- Was hard to hear the exact rhythm of notes, this sounds about right
(Chorus riff plays in backround)

e|-10-10-10-10-8-8-8-8--------------------------------------------------------------|
B|---------------------10-10-10-10-8-8----------------------------------------------|
G|-------------------------------------10-10-8-8-8-8-12--10--12--12b14--12--10~~----|
D|----------------------------------------------------------------------------------|
A|----------------------------------------------------------------------------------|
D|----------------------------------------------------------------------------------|

e|-10~-----8~---------------------------------------------------|
B|--------------10~---8-----------------------------------------|
G|-----------------------10--10p7-10--7------7------------------|
D|---------------------------------------10---------------------|
A|-----------------------------------------------10-10p8-10-8---|
D|--------------------------------------------------------------|

e|-10-10-10-10-8-8-8-8--------------------------------------------------------------|
B|---------------------10-10-10-10-8-8----------------------------------------------|
G|-------------------------------------10--12p10--12b14-12-10-----------------------|
D|------------------------------------------------------------12p10-12-12p10-12p10--|
A|----------------------------------------------------------------------------------|
D|----------------------------------------------------------------------------------|

e|-10-10-10-10-8-8-8-8-----------------------------------------|
B|---------------------10--------------------------------------|
G|------------------------12b14-12-10-------------------9-9b10-|
D|------------------------------------12p10-12-12p10-12--------|
A|-------------------------------------------------------------|
D|-------------------------------------------------------------|


Instrumental:
Gtr 1:
e|-----5-------5-------6-------1-------3-----3-----3-----3-|
B|---6-------5-------6-------1-------3––3--3––3--3––3--3---|
G|-7-----7-6-----6-7-----7-2-----2-3-----3-----3-----3-----| X 4
D|---------------------------------------------------------|
A|---------------------------------------------------------|
D|---------------------------------------------------------|

Gtr 2: comes in after 2nd repeat of Gtr 1
e|-------------------------------------------------------------------|
B|-------------------------------------------------------------------|
G|-------------------------------------------------------------------|
D|-------------------------------------------------------------------| X 2
A|-------------------------------------------------------------------|
D|-0-0-0–0-7-7-7-7-8-8-8-8-3-3-3-3-5-5-5-5-5-5-5-5-5-5-5-5-5-5-5-5-5-|


Chorus:

e|-------------------------------------------------------|
B|-------------------------------------------------------|
G|------5------------5-----5----5---5---5---7--7---------| X 4
D|----7---7--7---5h7---5-7-----(3)-(3)-(3)--5--5--7--5---|
A|----5---5--5---5--------------3---3---3---5--5---------|
D|-0~~~----------------------3~~~-----------5------------|

End on Dm chord diagramDmDm

Almost there ...

Sign in to get your own page with links to favourite songs and more. You are just one click away...

Login with Facebook Login with Google