Log in

One click and you are in

Login with Facebook Login with Google

Why sign up and log in

Guitar Tabs Explorer
Black Pistol Fire guitar tabs for Hot mess

Guitar tabs

Intro - repeat 2x (repetir 2x)

|-|------------------------3---------|-----------------------1-----------3---------||
|-|-----1---1-1---1----3/5---5\3-1---|-1-1---1-1---1-----3-------3---3/5---5\3-1---||
|-|-----0h2---0h2-0------------------|-0-0h2---0h2-0-0---0-------0-----------------||
|-|---2------------------------------|---------------0-----------------------------||
|-|-3----------------3-------------3-|---------------------------------------------||
|-|----------------------------------|-----------------3---3---3---3---------------||

He starts to sing then you play the following (Aqui ele começa a cantar e você toca o seguinte)
2x

|-|----------------------3-------|------------------------------1-----------3----------||
|-|---1----1----1----3/5---5\3-1-|--1---1---1---1-1---1-----3-------3---3/5---5\3-1----||
|-|-----0h2-0h2--0---------------|---0h2-0h2-0h2--0h2-0-0---0-------0------------------||
|-|------------------------------|----------------------0------------------------------||
|-|-3--------------3-------------|-3-------------------------------------------------3-||
|-|------------------------------|------------------------3---3---3---3----------------||


Bridge:

Repeat 2x

|-|-------x-|---|
|-|-----3-x-|-1-|
|-|-0-0-2-x-|-2-|
|-|-2-2-0-x-|-2-|
|-|-3-3---x-|-0-|
|-|-------x-|---|


Chorus:

muffled (abafado)

repeat 2x
    A chord diagramC majorC         A chord diagramFF
|-|---|     |---|
|-|---|     |---|
|-|-0-|     |---|
|-|-2-| and |-3-|
|-|-3-|     |-3-|
|-|---|     |-1-|

     A chord diagramC majorC      A chord diagramA minorAm    A chord diagramAm7Am7
|-|---------------------|
|-|--------1-1----1-1---|
|-|-0-0----2-2----0-0---|
|-|-2-2----2-2----2-2---|
|-|-3-3...-0-0-..-0-0..-|
|-|---------------------|

Then (então):

Repeat 4x
    A chord diagramC majorC  A chord diagramC majorC   A chord diagramFF   A chord diagramG MajorG
|-|----------------|
|-|-1--1---1---1---|
|-|-0--0---2---0---|
|-|-2--2---3---0---|
|-|-3..3..-0..-2---|
|-|------------3..-|

Other/outro

6x

mute
|-|------10-10-10-12-x--10-10-|
|-|-8----10-10-10-10-10-10-10-|
|-|-9----10-10-10-10-10-10-10-|
|-|-10..----------------------|
|-|---------------------------|
|-|---------------------------|

Thats all.

Almost there ...

Sign in to get your own page with links to favourite songs and more. You are just one click away...

Login with Facebook Login with Google