Search tabs and chords

Search for song, artist or band

Log in

One click and you are in

Login with Facebook Login with Google

Why sign up and log in

Guitar Tabs Explorer
Black Pistol Fire guitar tabs for Fleet foot

Guitar tabs

Fleet Foot - Don't Wake the Riot - Black Pistol Fire
Tuning: Standard

Intro:
e|----------------------------------------------------|
B|----------------------------------------------------|
G|-----------------------5------------------------(5)-| X4
D|-7--7--7--7--7--7-5-7------7--7--7--7--7--7-5-7--5--|
A|-X--X--X--X--X--X----------X--X--X--X--X--X---------|
E|-5--5--5--5--5--5~~--------5--5--5--5--5--5~~-------|

e|------------------------------|
B|------------------------------|
G|-5--5--5--5--5--5--5--5--7~~--|
D|-X--X--X--X--X--X--X--X-(5)~--|
A|-3--3--3--3--3--3--3--3--5~~--|
E|------------------------------|

Bridge:
(Fuzz)
e|------------------------------------------------------------------------------------------|
B|------------------------------------------------------------------------------------------|
G|------------------------------------------------------------------------------------------|
D|----5p0-4p0---4p0---5p0-7~----------------------------------5p0-4p0---4p0---5p0-7~-----7--|
A|-0~~--------0-----0----------0--3p0-5p0-0-3p0-0----5~----0~~--------0-----0------------7--|
E|------------------------------------------------3--------------------------------------5--|

Chorus:
   A chord diagramAA Maj             C chord diagramCC Mag             G chord diagramGG Maj             D chord diagramDD Maj
e|-5---5---5-5-5-5---3---3---3-3-3-3---3---3---3-3-3-3---5---5---5-5-5-5--|
B|-5---5---5-5-5-5---5---5---5-5-5-5---3---3---3-3-3-3---7---7---7-7-7-7--|
G|-6---6---6-6-6-6---5---5---5-5-5-5---4---4---4-4-4-4---7---7---7-7-7-7--| X3
D|-7---7---7-7-7-7---5---5---5-5-5-5---5---5---5-5-5-5---7---7---7-7-7-7--|
A|-7---7---7-7-7-7---3---3---3-3-3-3---5---5---5-5-5-5---5---5---5-5-5-5--|
E|-5---5---5-5-5-5---3---3---3-3-3-3---3---3---3-3-3-3---5---5---5-5-5-5--|

   A chord diagramAA Maj             C chord diagramCC Mag             G chord diagramGG Maj
e|-5---5---5-5-5-5---3---3---3-3-3-3---3~~--|
B|-5---5---5-5-5-5---5---5---5-5-5-5---3~~--|
G|-6---6---6-6-6-6---5---5---5-5-5-5---4~~--|
D|-7---7---7-7-7-7---5---5---5-5-5-5---5~~--|
A|-7---7---7-7-7-7---3---3---3-3-3-3---5~~--|
E|-5---5---5-5-5-5---3---3---3-3-3-3---3~~--|

Verse 2:
 (Palm muted)
e|--------------------------------------------------|
B|--------------------------------------------------|
G|--------------------------------------------------|
D|--------------------------------------------------| X4
A|----------------------3~--------------------------|
E|-5--5--5--5--5--5-3-5-----5--5--5--5--5--5-3-5-3~-|

e|------------------------------|
B|------------------------------|
G|------------------------------|
D|------------------------------|
A|-3--3--3--3--3--3--3--3--5~---|
E|------------------------------|

Bridge:
 (Fuzz)
e|------------------------------------------------------------------------------------------|
B|------------------------------------------------------------------------------------------|
G|------------------------------------------------------------------------------------------|
D|----5p0-4p0---4p0---5p0-7~----------------------------------5p0-4p0---4p0---5p0-7~-----7--|
A|-0~~--------0-----0----------0--3p0-5p0-0-3p0-0----5~----0~~--------0-----0------------7--|
E|------------------------------------------------3--------------------------------------5--|

Chorus:
   A chord diagramAA Maj             C chord diagramCC Mag             G chord diagramGG Maj             D chord diagramDD Maj
e|-5---5---5-5-5-5---3---3---3-3-3-3---3---3---3-3-3-3---5---5---5-5-5-5--|
B|-5---5---5-5-5-5---5---5---5-5-5-5---3---3---3-3-3-3---7---7---7-7-7-7--|
G|-6---6---6-6-6-6---5---5---5-5-5-5---4---4---4-4-4-4---7---7---7-7-7-7--| X3
D|-7---7---7-7-7-7---5---5---5-5-5-5---5---5---5-5-5-5---7---7---7-7-7-7--|
A|-7---7---7-7-7-7---3---3---3-3-3-3---5---5---5-5-5-5---5---5---5-5-5-5--|
E|-5---5---5-5-5-5---3---3---3-3-3-3---3---3---3-3-3-3---5---5---5-5-5-5--|

   A chord diagramAA Maj             C chord diagramCC Mag             G chord diagramGG Maj
e|-5---5---5-5-5-5---3---3---3-3-3-3---3~~--|
B|-5---5---5-5-5-5---5---5---5-5-5-5---3~~--|
G|-6---6---6-6-6-6---5---5---5-5-5-5---4~~--|
D|-7---7---7-7-7-7---5---5---5-5-5-5---5~~--|
A|-7---7---7-7-7-7---3---3---3-3-3-3---5~~--|
E|-5---5---5-5-5-5---3---3---3-3-3-3---3~~--|

Interlude:
e|-(5)------(3)------(5)------(3)-------|
B|-(5)------(3)------(5)------(3)-------|
G|-(6)------(4)------(6)------(4)-------|
D|--7~-------5~-------7~-------5~-------|
A|--7~-------5~-------7~-------5~-------|
E|--5~-------3~-------5~-------3~-------|

(Fuzz)
  Gtr 1:
e|----------------------------------------------------------------------------------------------------|
B|----------------------------------------------------------------------------------------------------|
G|-5---------------------------5-----------------------------5------------------------5-5-5-5-7-7-7-7-|
D|----7---5-----------------------7---5-------------------------7---5-----------------5-5-5-5-7-7-7-7-|
A|-----------7---5---5--5s7--------------7----5----5s7-----------------7---5---5-5s7--3-3-3-3-5-5-5-5-|
E|-----------------8-----------------------------8-----8--5------------------8------------------------|

 Gtr 2: Played on the second time in the interlude
e|----------------------------------------------------------------------------------------------------|
B|-13--------------------------13---------------------------13----------------------------------------|
G|----14--12----------------------14--12-----------------------14--12---------------------------------|
D|-----------14--12--12-12s14------------14--12--12s14----------------14--12--12-12s14----------------|
A|-----------------15--------------------------15-----15--12----------------15------------------------|
E|----------------------------------------------------------------------------------------------------|

e|----------------------------------------------------------------------------------------------------|
B|----------------------------------------------------------------------------------------------------|
G|-5---------------------------5-----------------------------5------------------------5-5-5-5-7-7-7-7-|
D|----7---5-----------------------7---5-------------------------7---5-----------------5-5-5-5-7-7-7-7-|
A|-----------7---5---5--5s7--------------7----5----5s7-----------------7---5---5-5s7--3-3-3-3-5-5-5-5-|
E|-----------------8-----------------------------8-----8--5------------------8------------------------|

 Gtr 2: Played on the second time in the interlude
e|----------------------------------------------------------------------------------------------------|
B|-13--------------------------13---------------------------13----------------------------------------|
G|----14--12----------------------14--12-----------------------14--12---------------------------------|
D|-----------14--12--12-12s14------------14--12--12s14----------------14--12--12-12s14----------------|
A|-----------------15--------------------------15-----15--12----------------15------------------------|
E|----------------------------------------------------------------------------------------------------|

 Gtr 1: (Palm muted)
e|----------------------------------------------------|
B|----------------------------------------------------|
G|----------------------------------------------------|
D|----------------------------------------------------|
A|----------------------3~----------------------------|
E|-5--5--5--5--5--5-3-5------5--5--5--5--5--5-3-5-3~--|

 Gtr 2:
e|----------------------------------------------------|
B|----------------------------------------------------|
G|-----------------------5----------------------------|
D|-7--7--7--7--7--7-5-7------7--7--7--7--7--7-5-7-5---|
A|-X--X--X--X--X--X----------X--X--X--X--X--X---------|
E|-5--5--5--5--5--5~~--------5--5--5--5--5--5~~-------|

e|----------------------------------------------------|
B|----------------------------------------------------|
G|----------------------------------------------------|
D|----------------------------------------------------|
A|----------------------3~----------------------------|
E|-5--5--5--5--5--5-3-5------5--5--5--5--5--5-3-5-3~--|

 Gtr 2:
e|----------------------------------------------------|
B|----------------------------------------------------|
G|-----------------------5----------------------------|
D|-7--7--7--7--7--7-5-7------7--7--7--7--7--7-5-7-5---|
A|-X--X--X--X--X--X----------X--X--X--X--X--X---------|
E|-5--5--5--5--5--5~~--------5--5--5--5--5--5~~-------|

e|----------------------------------------------------|
B|----------------------------------------------------|
G|----------------------------------------------------|
D|----------------------------------------------------|
A|----------------------3~----------------------------|
E|-5--5--5--5--5--5-3-5------5--5--5--5--5--5-3-5-3~--|

 Gtr 2:
e|----------------------------------------------------|
B|----------------------------------------------------|
G|-----------------------5----------------------------|
D|-7--7--7--7--7--7-5-7------7--7--7--7--7--7-5-7-5---|
A|-X--X--X--X--X--X----------X--X--X--X--X--X---------|
E|-5--5--5--5--5--5~~--------5--5--5--5--5--5~~-------|

e|----------------------------------------------------|
B|----------------------------------------------------|
G|----------------------------------------------------|
D|----------------------------------------------------|
A|----------------------3~----------------------------|
E|-5--5--5--5--5--5-3-5------5--5--5--5--5--5-3-5-3~--|

 Gtr 2:
e|----------------------------------------------------|
B|----------------------------------------------------|
G|-----------------------5----------------------------|
D|-7--7--7--7--7--7-5-7------7--7--7--7--7--7-5-7-5---|
A|-X--X--X--X--X--X----------X--X--X--X--X--X---------|
E|-5--5--5--5--5--5~~--------5--5--5--5--5--5~~-------|

Gtr 1:
e|------------------------------|
B|------------------------------|
G|------------------------------|
D|------------------------------|
A|-3--3--3--3--3--3--3--3--5~---|
E|------------------------------|

Gtr 2:
e|------------------------------|
B|------------------------------|
G|-5--5--5--5--5--5--5--5--7~~--|
D|-X--X--X--X--X--X--X--X-(5)~--|
A|-3--3--3--3--3--3--3--3--5~~--|
E|------------------------------|

Bridge:
(Fuzz)
e|------------------------------------------------------------------------------------------|
B|------------------------------------------------------------------------------------------|
G|------------------------------------------------------------------------------------------|
D|----5p0-4p0---4p0---5p0-7~----------------------------------5p0-4p0---4p0---5p0-7~-----7--|
A|-0~~--------0-----0----------0--3p0-5p0-0-3p0-0----5~----0~~--------0-----0------------7--|
E|------------------------------------------------3--------------------------------------5--|

Chorus:
   A chord diagramAA Maj             C chord diagramCC Mag             G chord diagramGG Maj             D chord diagramDD Maj
e|-5---5---5-5-5-5---3---3---3-3-3-3---3---3---3-3-3-3---5---5---5-5-5-5--|
B|-5---5---5-5-5-5---5---5---5-5-5-5---3---3---3-3-3-3---7---7---7-7-7-7--|
G|-6---6---6-6-6-6---5---5---5-5-5-5---4---4---4-4-4-4---7---7---7-7-7-7--| X3
D|-7---7---7-7-7-7---5---5---5-5-5-5---5---5---5-5-5-5---7---7---7-7-7-7--|
A|-7---7---7-7-7-7---3---3---3-3-3-3---5---5---5-5-5-5---5---5---5-5-5-5--|
E|-5---5---5-5-5-5---3---3---3-3-3-3---3---3---3-3-3-3---5---5---5-5-5-5--|

   A chord diagramAA Maj             C chord diagramCC Mag             G chord diagramGG Maj
e|-5---5---5-5-5-5---3---3---3-3-3-3---3~~~~~-||
B|-5---5---5-5-5-5---5---5---5-5-5-5---3~~~~~-||
G|-6---6---6-6-6-6---5---5---5-5-5-5---4~~~~~-|| END
D|-7---7---7-7-7-7---5---5---5-5-5-5---5~~~~~-||
A|-7---7---7-7-7-7---3---3---3-3-3-3---5~~~~~-||

Almost there ...

Sign in to get your own page with links to favourite songs and more. You are just one click away...

Login with Facebook Login with Google