Search tabs and chords

Search for song, artist or band

Log in

One click and you are in

Login with Facebook Login with Google

Why sign up and log in

Guitar Tabs Explorer
Black Pistol Fire guitar tabs for Cry hell

Guitar tabs

Intro
e|---------------------0-------3b|
B|---------------------5---3-0---|
G|----3b---0-0---0---------------|
D|-------------2-----------------|
A|-------------------------------|
E|3----------------3-------------|

e|---------------------0----------|
B|---------------------5-------3--|
G|----3b---0-0---0---------2/4---4|
D|-------------2------------------|
A|--------------------------------|
E|3----------------3--------------|

Verse
e|---------------------0-------3b|
B|---------------------5---3-0---|
G|----3b---0-0---0---------------|
D|-------------2-----------------|
A|-------------------------------|
E|3----------------3-------------|

e|---------------------0----------|
B|---------------------5-------3--|
G|----3b---0-0---0---------2/4---4|
D|-------------2------------------|
A|--------------------------------|
E|3----------------3--------------|

Pre-Chorus
Lots of tremolo here
e|------------------------------------|
B|------------------------------------|
G|----9--------9--9--------5-------5-5|
D|----10-------10-10-------7-------7-7|
A|----10-------10-10-------7-------7-7|
E|8--------8-----------5-------5------|

e|---------------------0-------3b|---------------------0----------|
B|---------------------5---3-0---|---------------------5-------3--|
G|----3b---0-0---0---------------|----3b---0-0---0---------2/4---4|
A|-------------------------------|--------------------------------|
A|-------------------------------|--------------------------------|
E|3----------------3-------------|3----------------3--------------|

e|------------------|-------------------|
B|------------------|-------------------|
G|----9--------9--9-|----11--------11-11|
D|----10-------10-10|----12--------12-12|
A|----10-------10-10|----12--------12-12|
E|8--------8--------|10-------10--------|

Chorus
Use some heavy fuzz now
e|--------------------------------------|--------------------------------------|
B|--------------------------------------|--------------------------------------|
G|----2b-0-------2b-0-------------------|----2b-0-------2b-0-------------------|
D|------------------------------5-------|------------------------------5-------|
A|--------------------7---5-7-----7-5--5|--------------------7---5-7-----7-5--5|
E|3-3--------3-3------------------------|3-3--------3-3------------------------|

e|-----------------------|-----------------|
B|-----------------------|-----------------|
G|9--9--9--9--9--9--9--9-|11-11-11-11-11---|
D|10-10-10-10-10-10-10-10|12-12-12-12-12---|
A|10-10-10-10-10-10-10-10|12-12-12-12-12---|
E|8--8--8--8--8--8--8--8-|10-10-10-10-10---|

Bridge
Here comes the slapback delay
e|7---10---7------10---7-----|0----0----0-------------x-x|
B|8---8----8------8------10-8|10---12---10---12-10-12-x-x|
G|---------------------------|---------------------------|
D|---------------------------|---------------------------|
A|---------------------------|---------------------------|
E|---------------------------|---------------------------|

e|12---10----7------10---7-----|0----0----0----------------|
B|10---10----8------8------10-8|10---12---10---12-10-12-x-x|
G|-----------------------------|---------------------------|
D|-----------------------------|---------------------------|
A|-----------------------------|---------------------------|
E|-----------------------------|---------------------------|



************************************

| b  Bend
| /  Slide up
| x  Dead note

************************************

Almost there ...

Sign in to get your own page with links to favourite songs and more. You are just one click away...

Login with Facebook Login with Google