Search tabs and chords

Search for song, artist or band

Log in

One click and you are in

Login with Facebook Login with Google

Why sign up and log in

Guitar Tabs Explorer
Black Pistol Fire guitar tabs for Bully

Guitar tabs

Tuning: Standard (E chord diagramEE A chord diagramAA D chord diagramDD G chord diagramGG B chord diagramBB E chord diagramEE)

Key: Bm chord diagramBmBm

Difficulty: Novice

Intro:
e|---------------------------------------2-----------------------------------|
B|---8--7------13-----12-----5-----------------------------------------------|
G|-----------------------------0------2--------------------------------------|
D|---------------------------------1-----------------------------------------|
A|-7----5/12-12---12--10---3-----2-------2-----------------------------------|
E|---------------------------------------------------------------------------|

e|---------------------------------------2-----------------------------------|
B|---8--7------13-----12-----5-----------------------------------------------|
G|-----------------------------0------2--------------------------------------|
D|---------------------------------1-----------------------------------------|
A|-7----5/12-12---12--10---3-----2-------2-----------------------------------|
E|---------------------------------------------------------------------------|

Verse:
e|---------------------------------------2-----------------------------------|
B|---8--7------13-----12-----5-----------------------------------------------|
G|-----------------------------0------2--------------------------------------|
D|---------------------------------1-----------------------------------------|
A|-7----5/12-12---12--10---3-----2-------2-----------------------------------|
E|---------------------------------------------------------------------------|

e|---------------------------------------2-----------------------------------|
B|---8--7------13-----12-----5-----------------------------------------------|
G|-----------------------------0------2--------------------------------------|
D|---------------------------------1-----------------------------------------|
A|-7----5/12-12---12--10---3-----2-------2-----------------------------------|
E|---------------------------------------------------------------------------|

e|---------------------------------------2-----------------------------------|
B|---8--7------13-----12-----5-----------------------------------------------|
G|-----------------------------0------2--------------------------------------|
D|---------------------------------1-----------------------------------------|
A|-7----5/12-12---12--10---3-----2-------2-----------------------------------|
E|---------------------------------------------------------------------------|

e|---------------------------------------------------------------------------|
B|---8--7------13-----12---5--5----------------------------------------------|
G|--------------------------------2~-----------------------------------------|
D|--------------------------------1~-----------------------------------------|
A|-7----5/12-12---12--10---3--3---2~-----------------------------------------|
E|---------------------------------------------------------------------------|

Chorus:
e|---------------------------------------------------------------------------|
B|---------------------------------------------------------------------------|
G|---------------------------------------------------------------------------|
D|-2----10---7---------------------------------------------------------------|
A|-2-------------------------------------------------------------------------|
E|-0----8----5----7----5----3------------------------------------------------|

e|---------------------------------------------------------------------------|
B|---------------------------------------------------------------------------|
G|---------------------------------------------------------------------------|
D|-2----10---7---------------------------------------------------------------|
A|-2-------------------------------------------------------------------------|
E|-0----8----5----7----5----3------------------------------------------------|

e|---------------------------------------------------------------------------|
B|---------------------------------------------------------------------------|
G|---------------------------------------------------------------------------|
D|-2----10---7---------------------------------------------------------------|
A|-2-------------------------------------------------------------------------|
E|-0----8----5----7----5----3------------------------------------------------|

e|---------------------------------------------------------------------------|
B|---------------------------------------------------------------------------|
G|---------------------------------------------------------------------------|
D|-2----10---7---------------------------------------------------------------|
A|-2-------------------------------------------------------------------------|
E|-0----8----5----7~---------------------------------------------------------|

Intro:
e|---------------------------------------2-----------------------------------|
B|---8--7------13-----12-----5-----------------------------------------------|
G|-----------------------------0------2--------------------------------------|
D|---------------------------------1-----------------------------------------|
A|-7----5/12-12---12--10---3-----2-------2-----------------------------------|
E|---------------------------------------------------------------------------|

e|---------------------------------------2-----------------------------------|
B|---8--7------13-----12-----5-----------------------------------------------|
G|-----------------------------0------2--------------------------------------|
D|---------------------------------1-----------------------------------------|
A|-7----5/12-12---12--10---3-----2-------2-----------------------------------|
E|---------------------------------------------------------------------------|

Verse 2:
e|---------------------------------------2-----------------------------------|
B|---8--7------13-----12-----5-----------------------------------------------|
G|-----------------------------0------2--------------------------------------|
D|---------------------------------1-----------------------------------------|
A|-7----5/12-12---12--10---3-----2-------2-----------------------------------|
E|---------------------------------------------------------------------------|

e|---------------------------------------2-----------------------------------|
B|---8--7------13-----12-----5-----------------------------------------------|
G|-----------------------------0------2--------------------------------------|
D|---------------------------------1-----------------------------------------|
A|-7----5/12-12---12--10---3-----2-------2-----------------------------------|
E|---------------------------------------------------------------------------|

e|---------------------------------------2-----------------------------------|
B|---8--7------13-----12-----5-----------------------------------------------|
G|-----------------------------0------2--------------------------------------|
D|---------------------------------1-----------------------------------------|
A|-7----5/12-12---12--10---3-----2-------2-----------------------------------|
E|---------------------------------------------------------------------------|

e|---------------------------------------------------------------------------|
B|---8--7------13-----12---5--5----------------------------------------------|
G|--------------------------------2~-----------------------------------------|
D|--------------------------------1~-----------------------------------------|
A|-7----5/12-12---12--10---3--3---2~-----------------------------------------|
E|---------------------------------------------------------------------------|

Chorus:
e|---------------------------------------------------------------------------|
B|---------------------------------------------------------------------------|
G|---------------------------------------------------------------------------|
D|-2----10---7---------------------------------------------------------------|
A|-2-------------------------------------------------------------------------|
E|-0----8----5----7----5----3------------------------------------------------|

e|---------------------------------------------------------------------------|
B|---------------------------------------------------------------------------|
G|---------------------------------------------------------------------------|
D|-2----10---7---------------------------------------------------------------|
A|-2-------------------------------------------------------------------------|
E|-0----8----5----7----5----3------------------------------------------------|

e|---------------------------------------------------------------------------|
B|---------------------------------------------------------------------------|
G|---------------------------------------------------------------------------|
D|-2----10---7---------------------------------------------------------------|
A|-2-------------------------------------------------------------------------|
E|-0----8----5----7----5----3------------------------------------------------|

e|---------------------------------------------------------------------------|
B|---------------------------------------------------------------------------|
G|---------------------------------------------------------------------------|
D|-2----10---7---------------------------------------------------------------|
A|-2-------------------------------------------------------------------------|
E|-0----8----5----7~---------------------------------------------------------|

Bridge:
e|-----8-------5--------7-------7--------------------------------------------|
B|-----8-------5--------8-------8--------------------------------------------|
G|-----8-------5--------9-------9--------------------------------------------|
D|---------------------------------------------------------------------------|
A|------------------7-7-----7-7----------------------------------------------|
E|-8-8------5-5--------------------------------------------------------------|

e|-----8-------5--------7-------7--------------------------------------------|
B|-----8-------5--------8-------8--------------------------------------------|
G|-----8-------5--------9-------9--------------------------------------------|
D|---------------------------------------------------------------------------|
A|------------------7-7-----7-7----------------------------------------------|
E|-8-8------5-5--------------------------------------------------------------|

e|-----8-------5--------7-------7--------------------------------------------|
B|-----8-------5--------8-------8--------------------------------------------|
G|-----8-------5--------9-------9--------------------------------------------|
D|---------------------------------------------------------------------------|
A|------------------7-7-----7-7----------------------------------------------|
E|-8-8------5-5--------------------------------------------------------------|

e|-----8-------5--------7-------7--------------------------------------------|
B|-----8-------5--------8-------8--------------------------------------------|
G|-----8-------5--------9-------9--------------------------------------------|
D|---------------------------------------------------------------------------|
A|------------------7-7-----7-7----------------------------------------------|
E|-8-8------5-5--------------------------------------------------------------|

e|--5~------5~------7--7--7--7--7~-------------------------------------------|
B|--6~------5~------7--7--7--7--7~-------------------------------------------|
G|--7~------5~------7--7--7--7--7~-------------------------------------------|
D|--7~------7~------9--9--9--9--9~-------------------------------------------|
A|--5~------7~------9--9--9--9--9~-------------------------------------------|
E|----------5~------7--7--7--7--7~-------------------------------------------|

Solo:
e|-12--12--12--12--12--12--12--12---15---------------------------------------|
B|-15b-15b-15b-15b-15b-15b-15b-15b-------------------------------------------|
G|---------------------------------------------------------------------------|
D|---------------------------------------------------------------------------|
A|---------------------------------------------------------------------------|
E|---------------------------------------------------------------------------|

e|-12--12--12--12--12--12--12--12---15---------------------------------------|
B|-15b-15b-15b-15b-15b-15b-15b-15b-------------------------------------------|
G|---------------------------------------------------------------------------|
D|---------------------------------------------------------------------------|
A|---------------------------------------------------------------------------|
E|---------------------------------------------------------------------------|

e|-22~-19h22p19--18-19-22-19-18-19--19-22-19-22-19--18-19-18-----------------|
B|------------------------------------------------------------20--17---------|
G|---------------------------------------------------------------------------|
D|---------------------------------------------------------------------------|
A|---------------------------------------------------------------------------|
E|---------------------------------------------------------------------------|

e|-22~-19h22p19--18-19-22-19-18-19--19-22-19-22-19--18-19-18-----------------|
B|------------------------------------------------------------20--17---------|
G|---------------------------------------------------------------------------|
D|---------------------------------------------------------------------------|
A|---------------------------------------------------------------------------|
E|---------------------------------------------------------------------------|

Outro:
e|---------------------------------------------------------------------------|
B|---------------------------------------------------------------------------|
G|---------------------------------------------------------------------------|
D|-2----10---7---------------------------------------------------------------|
A|-2-------------------------------------------------------------------------|
E|-0----8----5----7----5----3------------------------------------------------|

e|---------------------------------------------------------------------------|
B|---------------------------------------------------------------------------|
G|---------------------------------------------------------------------------|
D|-2----10---7---------------------------------------------------------------|
A|-2-------------------------------------------------------------------------|
E|-0----8----5----7----5----3------------------------------------------------|

e|---------------------------------------------------------------------------|
B|---------------------------------------------------------------------------|
G|---------------------------------------------------------------------------|
D|-2----10---7---------------------------------------------------------------|
A|-2-------------------------------------------------------------------------|
E|-0----8----5----7----5----3------------------------------------------------|

e|---------------------------------------------------------------------------|
B|---------------------------------------------------------------------------|
G|---------------------------------------------------------------------------|
D|-2----10---7---------------------------------------------------------------|
A|-2-------------------------------------------------------------------------|
E|-0----8----5----7~---------------------------------------------------------|


************************************

| h   Hammer-on
| p   Pull-off
| b   Bend
| /   Slide up
| ~   Vibrato

************************************

Other versions of Bully

BullyChords

Almost there ...

Sign in to get your own page with links to favourite songs and more. You are just one click away...

Login with Facebook Login with Google