Guitar Tabs Explorer
Black Pistol Fire guitar tabs for Bad blood

Bad Blood tab


5 / 5 [2 votes]

Bad Blood tab by Black Pistol Fire

Guitar tabs

Print
  • Capo on 3rd

Solo not included, but you can try on as it is not that difficult.
1

|----------------------------------|
|----------------------------------|
|----------------------------------|
|---------------0h2--22-0h2p0------|
|-0--00-0h3--33---------------3-0--|
|----------------------------------|

2

|-----1~------1~------0~---|
|-----1~------3~------1~---|
|-----2~--(2)-2~------2~---|
|-(3)-3~--(0)-0~--(2)-2~---|
|-(3)-3~----------(0)-0~..-|
|-(1)-1~-------------------|


He hey, he hey!
3

|---|-0-|-1-|-1-|
|-1-|-0-|-3-|-1-|
|-2-|-1-|-2-|-2-|
|-2-|-0-|-0-|-3-|
|-0-|-2-|---|-3-|
|---|-0-|---|-1-|


Repeat all three things above all over again, then:
4

|-----------------------------------| |-------------------------------------|
|-----------------------------------| |--------------------------------3~---|
|---2-2~--5-7-5---5-7b(9~)-------2~-| |---2-2~--5-7-5---5-7b(9~)-------2~---|
|---------------7------------2---2~-| |---------------7------------2---0~---|
|-0--------------------------3-2-0~-| |-0--------------------------3-2------|
|------------------------------3----| |------------------------------3------|


Then, when things calm down:

Oooooh, oooh oh, oooooh oh, ooooh oh.

muffled
5

|-----1--------0-----------------0---|
|---1-1-1----1-1-1------2------1-1-1-|
|---2-2-2----0-0-0----0-0-0----2-2-2-| 3x
|-3-3---3--2-2---2--0-0-0-0--2-2---2-|
|-3--------3--------2-2---2--0-------|
|-------------------3----------------|


The last one goes like this (not muffled):
6

|-----------------------------------|
|-1-1--1-1--1-1--1-1--0-0--0-0-0--0-|
|-2-2--2-2--0-0--0-0--1-1--1-1-1--1-|
|-3-3--3-3--2-2--2-2--0-0--0-0-0--0-|
|-3-3--3-3--3-3--3-3--2-2--2-2-2--2-|
|---------------------0-0--0-0-0--0-|


Then part 4 again, but now with more feelings!
Then solo.
Then part 1
Then end.

Other versions of Bad Blood

Bad bloodChords

Comment this song and these guitar tabs

Do you have corrections, comments on the guitar tabs, thoughts about the song or a message to the author? Write them below.