Log in

One click and you are in

Login with Facebook Login with Google

Why sign up and log in

Guitar Tabs Explorer
Black Midi bass tabs for Western

Bass tabs

Tuning: Standard (E A D G)


Intro:

G|----------9----------9-----------------9--------------------|
D|---9----------9--------9--------9--------9/11-11------------|
A|-7---9/11---7---9/11-----11-9-7---9/11-----------11h-9\7-7--|
E|------------------------------------------------------------|
G|----------9-----------------------------9--------------|
D|---9----------9------9-----------9----------9----------|
A|-7---9/11---7---9/11---11-9-7--7---9/11---7---7-11-11--|
E|-------------------------------------------------------|

G|----------------------9-------------------------------9\6----------|
D|---9-----------9-9/11---11-9----------9----6h-6h-9/11-----9\6-9\4--|
A|-7---7-11-11-7---------------11-9\7-7---7h-------------------------|
E|-------------------------------------------------------------------|

G|----------------------9---------------------------------------------|
D|---9-----------9-9/11---11-9----------9---------9-9-9/11-11-9-------|
A|-7---7-11-11-7---------------11-9\7-7---11-11-7---------------11-9--|
E|--------------------------------------------------------------------|

G|----------------------------------9--------------|
D|---9---9---9---9---9---9---9----------9----------|
A|-7---7---7---7---7---7---7---9/11---7---7/11-11--|
E|-------------------------------------------------|


G|----------------------------------------------|
D|----------------------------------------------|
A|-6-6-6-6-6-6-6-6-6-6-6-6-6-6-6-6-6-6-6-6-6-6--|
E|----------------------------------------------|

G|---------------------------------|
D|--------------9------------------|
A|-7-9-11-11-11---9-11-11-11-11-11-|
E|---------------------------------|

G|----------------------------------------------------------|
D|----------------------------------------------------------|
A|-6-6-6-6-6-6-6-6-6-6-6-6-6-6-6-6-7-7-7-7-7-7-7-7-7-7-7-7--|
E|----------------------------------------------------------|

G|--------------9------------|
D|---9-11h-------------------|
A|-9-------9-11---7h-9-7h-9--|
E|---------------------------|



G|-8---11---8---8---8---8---11/13-11/13-11/13-11/13-8----------------------------------|
D|---9----9---9---9---9---9---------------------------9h-9/11-11/16-16-16-16-16-16-16--|
A|-------------------------------------------------------------------------------------|
E|-------------------------------------------------------------------------------------|

G|-8---8---8-8-9-9-9-9-11-11-11-11----------------------------------|
D|---9---9-------------------------13-13-13-11-11-11-11-11-11-11-11-|
A|------------------------------------------------------------------|
E|------------------------------------------------------------------|

(in this part he just plays some variations of the same bassline, but here are the extact repetitions)

G|-8-----------|
D|---9-9-------|
A|-------9-11\-| x11
E|-------------|

G|-8--------------|
D|---9-9----------|
A|-------9-11-11\-|
E|----------------|

G|-8-----------|
D|---9-9-------|
A|-------9-11\-| x3
E|-------------|

G|-8--------------|
D|---9-9------11\-|
A|-------9-11-----|
E|----------------|

G|-8-----------|
D|---9-9-------|
A|-------9-11\-| x3
E|-------------|

G|-8--------------|
D|---9-9------11\-|
A|-------9-11-----|
E|----------------|

G|-8-----------|
D|---9-9-------|
A|-------9-11\-|
E|-------------|

G|-8--------------|
D|---9-9------11\-|
A|-------9-11-----|
E|----------------|

G|-8-----------|
D|---9-9-------|
A|-------9-11\-|
E|-------------|

G|-8--------------|
D|---9-9----------|
A|-------9-11-11\-|
E|----------------|

G|-8-----------|
D|---9-9-------|
A|-------9-11\-|
E|-------------|

G|-8--------------|
D|---9-9------11\-|
A|-------9-11-----|
E|----------------|

G|-8-----------|
D|---9-9-------|
A|-------9-11\-|
E|-------------|

G|-8--------------|
D|---9-9----------|
A|-------9-11-11\-|
E|----------------|

G|-8-----------|
D|---9-9-------|
A|-------9-11\-| x3
E|-------------|

G|-8--------------|
D|---9-9----------|
A|-------9-11-11\-|
E|----------------|

G|-8-----------|
D|---9-9-------|
A|-------9-11\-|
E|-------------|

G|-8--------------|
D|---9-9------11\-|
A|-------9-11-----|
E|----------------|

G|-8-----------|
D|---9-9-------|
A|-------9-11\-|
E|-------------|

G|-8--------------|
D|---9-9----------|
A|-------9-11-11\-|
E|----------------|

G|-8-----------|
D|---9-9-------|
A|-------9-11\-|
E|-------------|

G|-8--------------|
D|---9-9----------|
A|-------9-11-11\-|
E|----------------|

G|-8-----------|
D|---9-9-------|
A|-------9-11\-|
E|-------------|

G|-8--------------|
D|---9-9----------|
A|-------9-11-11\-|
E|----------------|

G|-8-----------|
D|---9-9-------|
A|-------9-11\-| x3
E|-------------|

G|-8--------------|
D|---9-9----------|
A|-------9-11-11\-|
E|----------------|


G|-8--------------|
D|---9-9----------|
A|-------9-11-6/--|
E|----------------| x23

G|-8-----------|
D|---9-9-------|
A|-------9-11--|
E|-------------|


G|----------9----------9--------------|
D|---9----------9-9/11---11-9---------|
A|-7---9/11---7---------------11-9\7--|
E|------------------------------------|

G|----------9-----------|
D|---9----------9-------|
A|-7---9/11---7---9-11--|
E|----------------------|

G|----------------------9---------------------------------------|
D|---9-----------9-9/11---11-9----------9----6h-6h-9/11---------|
A|-7---7-11-11-7---------------11-9\7-7---7h------------11-9-7--|
E|--------------------------------------------------------------|


************************************

| / Slide up
| h Hammer-on
| \ Slide down

************************************

Almost there ...

Sign in to get your own page with links to favourite songs and more. You are just one click away...

Login with Facebook Login with Google