Search tabs and chords

Search for song, artist or band

Log in

One click and you are in

Login with Facebook Login with Google

Why sign up and log in

Guitar Tabs Explorer
Mary Black guitar tabs for Rose of allendale

Guitar tabs

Tuning: Standard (E chord diagramEE A chord diagramAA D chord diagramDD G chord diagramGG B chord diagramBB E chord diagramEE)

The Rose of Allendale - Mary Black

Intro:
  D chord diagramDD
e|-------2-----|-------2-----|
B|-----3---3---|-----3---3---|
G|---2-------2-|---2-------2-|
D|-0-----------|-0-----------|
A|-------------|-------------|
E|-------------|-------------|

Verse 1:
  D chord diagramDD                           G chord diagramGG             D chord diagramDD
e|-------2-----|-------2-----|-------------|-------2-----|
B|-----3---3---|-----3---3---|-------0-----|-----3---3---|
G|---2-------2-|---2-------2-|-----0---0---|---2-------2-|
D|-0-----------|-0-----------|---0-------0-|-0-----------|
A|-------------|-------------|-------------|-------------|
E|-------------|-------------|-3-----------|-------------|

  D chord diagramDD                           A chord diagramAA             A7 chord diagramA7A7
e|-------2-----|-------2-----|-------------|-------------|
B|-----3---3---|-----3---3---|-------2-----|-------2-----|
G|---2-------2-|---2-------2-|-----2---2---|-----0---0---|
D|-0-----------|-0-----------|---2-------2-|---2-------2-|
A|-------------|-------------|-0-----------|-0-----------|
E|-------------|-------------|-------------|-------------|

  D chord diagramDD             D7 chord diagramD7D7            G chord diagramGG             D chord diagramDD
e|-------2-----|-------2-----|-------------|-------2-----|
B|-----3---3---|-----1---1---|-------0-----|-----3---3---|
G|---2-------2-|---2-------2-|-----0---0---|---2-------2-|
D|-0-----------|-0-----------|---0-------0-|-0-----------|
A|-------------|-------------|-------------|-------------|
E|-------------|-------------|-3-----------|-------------|

  D chord diagramDD             A chord diagramAA             D chord diagramDD
e|-------2-----|-------------|-------2-----|-------2-----|
B|-----3---3---|-------2-----|-----3---3---|-----3---3---|
G|---2-------2-|-----2---2---|---2-------2-|---2-------2-|
D|-0-----------|---2-------2-|-0-----------|-0-----------|
A|-------------|-0-----------|-------------|-------------|
E|-------------|-------------|-------------|-------------|

  D chord diagramDD             A chord diagramAA                           D chord diagramDD
e|-------2-----|-------------|-------------|-------2-----|
B|-----3---3---|-------2-----|-------2-----|-----3---3---|
G|---2-------2-|-----2---2---|-----2---2---|---2-------2-|
D|-0-----------|---2-------2-|---2-------2-|-0-----------|
A|-------------|-0-----------|-0-----------|-------------|
E|-------------|-------------|-------------|-------------|

  D chord diagramDD                           A chord diagramAA             A7 chord diagramA7A7
e|-------2-----|-------2-----|-------------|-------------|
B|-----3---3---|-----3---3---|-------2-----|-------2-----|
G|---2-------2-|---2-------2-|-----2---2---|-----0---0---|
D|-0-----------|-0-----------|---2-------2-|---2-------2-|
A|-------------|-------------|-0-----------|-0-----------|
E|-------------|-------------|-------------|-------------|

  D chord diagramDD             D7 chord diagramD7D7            G chord diagramGG             D chord diagramDD
e|-------2-----|-------2-----|-------------|-------2-----|
B|-----3---3---|-----1---1---|-------0-----|-----3---3---|
G|---2-------2-|---2-------2-|-----0---0---|---2-------2-|
D|-0-----------|-0-----------|---0-------0-|-0-----------|
A|-------------|-------------|-------------|-------------|
E|-------------|-------------|-3-----------|-------------|

  D chord diagramDD             A chord diagramAA             D chord diagramDD
e|-------2-----|-------------|-------2-----|-------2-----|
B|-----3---3---|-------2-----|-----3---3---|-----3---3---|
G|---2-------2-|-----2---2---|---2-------2-|---2-------2-|
D|-0-----------|---2-------2-|-0-----------|-0-----------|
A|-------------|-0-----------|-------------|-------------|
E|-------------|-------------|-------------|-------------|

Chorus 1:
  D chord diagramDD                           G chord diagramGG
e|-------2-----|-------2-----|-------------|-------------|
B|-----3---3---|-----3---3---|-------0-----|-------0-----|
G|---2-------2-|---2-------2-|-----0---0---|-----0---0---|
D|-0-----------|-0-----------|---0-------0-|---0-------0-|
A|-------------|-------------|-------------|-------------|
E|-------------|-------------|-3-----------|-3-----------|

  Em chord diagramEmEm            Bm11 chord diagramBm11Bm11          A chord diagramAA             A7 chord diagramA7A7
e|-------------|-------------|-------------|-------------|
B|-------0-----|-------3-----|-------2-----|-------2-----|
G|-----0---0---|-----2---2---|-----2---2---|-----0---0---|
D|---2-------2-|---0-------0-|---2-------2-|---2-------2-|
A|-------------|-2-----------|-0-----------|-0-----------|
E|-0-----------|-------------|-------------|-------------|

  D chord diagramDD             D7 chord diagramD7D7            G chord diagramGG             D chord diagramDD
e|-------2-----|-------2-----|-------------|-------2-----|
B|-----3---3---|-----1---1---|-------0-----|-----3---3---|
G|---2-------2-|---2-------2-|-----0---0---|---2-------2-|
D|-0-----------|-0-----------|---0-------0-|-0-----------|
A|-------------|-------------|-------------|-------------|
E|-------------|-------------|-3-----------|-------------|

  D chord diagramDD             A chord diagramAA             D chord diagramDD
e|-------2-----|-------------|-------2-----|-------2-----|
B|-----3---3---|-------2-----|-----3---3---|-----3---3---|
G|---2-------2-|-----2---2---|---2-------2-|---2-------2-|
D|-0-----------|---2-------2-|-0-----------|-0-----------|
A|-------------|-0-----------|-------------|-------------|
E|-------------|-------------|-------------|-------------|

Verse 2:
  D chord diagramDD                           G chord diagramGG             D chord diagramDD
e|-------2-----|-------2-----|-------------|-------2-----|
B|-----3---3---|-----3---3---|-------0-----|-----3---3---|
G|---2-------2-|---2-------2-|-----0---0---|---2-------2-|
D|-0-----------|-0-----------|---0-------0-|-0-----------|
A|-------------|-------------|-------------|-------------|
E|-------------|-------------|-3-----------|-------------|

  D chord diagramDD                           A chord diagramAA             A7 chord diagramA7A7
e|-------2-----|-------2-----|-------------|-------------|
B|-----3---3---|-----3---3---|-------2-----|-------2-----|
G|---2-------2-|---2-------2-|-----2---2---|-----0---0---|
D|-0-----------|-0-----------|---2-------2-|---2-------2-|
A|-------------|-------------|-0-----------|-0-----------|
E|-------------|-------------|-------------|-------------|

  D chord diagramDD             D7 chord diagramD7D7            G chord diagramGG             D chord diagramDD
e|-------2-----|-------2-----|-------------|-------2-----|
B|-----3---3---|-----1---1---|-------0-----|-----3---3---|
G|---2-------2-|---2-------2-|-----0---0---|---2-------2-|
D|-0-----------|-0-----------|---0-------0-|-0-----------|
A|-------------|-------------|-------------|-------------|
E|-------------|-------------|-3-----------|-------------|

  D chord diagramDD             A chord diagramAA             D chord diagramDD
e|-------2-----|-------------|-------2-----|-------2-----|
B|-----3---3---|-------2-----|-----3---3---|-----3---3---|
G|---2-------2-|-----2---2---|---2-------2-|---2-------2-|
D|-0-----------|---2-------2-|-0-----------|-0-----------|
A|-------------|-0-----------|-------------|-------------|
E|-------------|-------------|-------------|-------------|

  D chord diagramDD             A chord diagramAA                           D chord diagramDD
e|-------2-----|-------------|-------------|-------2-----|
B|-----3---3---|-------2-----|-------2-----|-----3---3---|
G|---2-------2-|-----2---2---|-----2---2---|---2-------2-|
D|-0-----------|---2-------2-|---2-------2-|-0-----------|
A|-------------|-0-----------|-0-----------|-------------|
E|-------------|-------------|-------------|-------------|

  D chord diagramDD                           A chord diagramAA             A7 chord diagramA7A7
e|-------2-----|-------2-----|-------------|-------------|
B|-----3---3---|-----3---3---|-------2-----|-------2-----|
G|---2-------2-|---2-------2-|-----2---2---|-----0---0---|
D|-0-----------|-0-----------|---2-------2-|---2-------2-|
A|-------------|-------------|-0-----------|-0-----------|
E|-------------|-------------|-------------|-------------|

  D chord diagramDD             D7 chord diagramD7D7            G chord diagramGG             D chord diagramDD
e|-------2-----|-------2-----|-------------|-------2-----|
B|-----3---3---|-----1---1---|-------0-----|-----3---3---|
G|---2-------2-|---2-------2-|-----0---0---|---2-------2-|
D|-0-----------|-0-----------|---0-------0-|-0-----------|
A|-------------|-------------|-------------|-------------|
E|-------------|-------------|-3-----------|-------------|

  D chord diagramDD             A chord diagramAA             D chord diagramDD
e|-------2-----|-------------|-------2-----|-------2-----|
B|-----3---3---|-------2-----|-----3---3---|-----3---3---|
G|---2-------2-|-----2---2---|---2-------2-|---2-------2-|
D|-0-----------|---2-------2-|-0-----------|-0-----------|
A|-------------|-0-----------|-------------|-------------|
E|-------------|-------------|-------------|-------------|

Chorus 2:
  D chord diagramDD                           G chord diagramGG
e|-------2-----|-------2-----|-------------|-------------|
B|-----3---3---|-----3---3---|-------0-----|-------0-----|
G|---2-------2-|---2-------2-|-----0---0---|-----0---0---|
D|-0-----------|-0-----------|---0-------0-|---0-------0-|
A|-------------|-------------|-------------|-------------|
E|-------------|-------------|-3-----------|-3-----------|

    Em chord diagramEmEm            Bm11 chord diagramBm11Bm11        A chord diagramAA             A7 chord diagramA7A7
e|-------------|-------------|-------------|-------------|
B|-------0-----|-------3-----|-------2-----|-------2-----|
G|-----0---0---|-----2---2---|-----2---2---|-----0---0---|
D|---2-------2-|---0-------0-|---2-------2-|---2-------2-|
A|-------------|-2-----------|-0-----------|-0-----------|
E|-0-----------|-------------|-------------|-------------|

  D chord diagramDD             D7 chord diagramD7D7            G chord diagramGG             D chord diagramDD
e|-------2-----|-------2-----|-------------|-------2-----|
B|-----3---3---|-----1---1---|-------0-----|-----3---3---|
G|---2-------2-|---2-------2-|-----0---0---|---2-------2-|
D|-0-----------|-0-----------|---0-------0-|-0-----------|
A|-------------|-------------|-------------|-------------|
E|-------------|-------------|-3-----------|-------------|

  D chord diagramDD             A chord diagramAA             D chord diagramDD
e|-------2-----|-------------|-------2-----|-------2-----|
B|-----3---3---|-------2-----|-----3---3---|-----3---3---|
G|---2-------2-|-----2---2---|---2-------2-|---2-------2-|
D|-0-----------|---2-------2-|-0-----------|-0-----------|
A|-------------|-0-----------|-------------|-------------|
E|-------------|-------------|-------------|-------------|

Verse 3:
  D chord diagramDD                           G chord diagramGG             D chord diagramDD
e|-------2-----|-------2-----|-------------|-------2-----|
B|-----3---3---|-----3---3---|-------0-----|-----3---3---|
G|---2-------2-|---2-------2-|-----0---0---|---2-------2-|
D|-0-----------|-0-----------|---0-------0-|-0-----------|
A|-------------|-------------|-------------|-------------|
E|-------------|-------------|-3-----------|-------------|

  D chord diagramDD                           A chord diagramAA             A7 chord diagramA7A7
e|-------2-----|-------2-----|-------------|-------------|
B|-----3---3---|-----3---3---|-------2-----|-------2-----|
G|---2-------2-|---2-------2-|-----2---2---|-----0---0---|
D|-0-----------|-0-----------|---2-------2-|---2-------2-|
A|-------------|-------------|-0-----------|-0-----------|
E|-------------|-------------|-------------|-------------|

  D chord diagramDD             D7 chord diagramD7D7            G chord diagramGG             D chord diagramDD
e|-------2-----|-------2-----|-------------|-------2-----|
B|-----3---3---|-----1---1---|-------0-----|-----3---3---|
G|---2-------2-|---2-------2-|-----0---0---|---2-------2-|
D|-0-----------|-0-----------|---0-------0-|-0-----------|
A|-------------|-------------|-------------|-------------|
E|-------------|-------------|-3-----------|-------------|

  D chord diagramDD             A chord diagramAA             D chord diagramDD
e|-------2-----|-------------|-------2-----|-------2-----|
B|-----3---3---|-------2-----|-----3---3---|-----3---3---|
G|---2-------2-|-----2---2---|---2-------2-|---2-------2-|
D|-0-----------|---2-------2-|-0-----------|-0-----------|
A|-------------|-0-----------|-------------|-------------|
E|-------------|-------------|-------------|-------------|

  D chord diagramDD             A chord diagramAA                           D chord diagramDD
e|-------2-----|-------------|-------------|-------2-----|
B|-----3---3---|-------2-----|-------2-----|-----3---3---|
G|---2-------2-|-----2---2---|-----2---2---|---2-------2-|
D|-0-----------|---2-------2-|---2-------2-|-0-----------|
A|-------------|-0-----------|-0-----------|-------------|
E|-------------|-------------|-------------|-------------|

  D chord diagramDD                           A chord diagramAA             A7 chord diagramA7A7
e|-------2-----|-------2-----|-------------|-------------|
B|-----3---3---|-----3---3---|-------2-----|-------2-----|
G|---2-------2-|---2-------2-|-----2---2---|-----0---0---|
D|-0-----------|-0-----------|---2-------2-|---2-------2-|
A|-------------|-------------|-0-----------|-0-----------|
E|-------------|-------------|-------------|-------------|

  D chord diagramDD             D7 chord diagramD7D7            G chord diagramGG             D chord diagramDD
e|-------2-----|-------2-----|-------------|-------2-----|
B|-----3---3---|-----1---1---|-------0-----|-----3---3---|
G|---2-------2-|---2-------2-|-----0---0---|---2-------2-|
D|-0-----------|-0-----------|---0-------0-|-0-----------|
A|-------------|-------------|-------------|-------------|
E|-------------|-------------|-3-----------|-------------|

  D chord diagramDD             A chord diagramAA             D chord diagramDD
e|-------2-----|-------------|-------2-----|-------2-----|
B|-----3---3---|-------2-----|-----3---3---|-----3---3---|
G|---2-------2-|-----2---2---|---2-------2-|---2-------2-|
D|-0-----------|---2-------2-|-0-----------|-0-----------|
A|-------------|-0-----------|-------------|-------------|
E|-------------|-------------|-------------|-------------|

Chorus 3:
  D chord diagramDD                           G chord diagramGG
e|-------2-----|-------2-----|-------------|-------------|
B|-----3---3---|-----3---3---|-------0-----|-------0-----|
G|---2-------2-|---2-------2-|-----0---0---|-----0---0---|
D|-0-----------|-0-----------|---0-------0-|---0-------0-|
A|-------------|-------------|-------------|-------------|
E|-------------|-------------|-3-----------|-3-----------|

  Em chord diagramEmEm            Bm chord diagramBmBm            A chord diagramAA             A7 chord diagramA7A7
e|-------------|-------2-----|-------------|-------------|
B|-------0-----|-----3---3---|-------2-----|-------2-----|
G|-----0---0---|---4-------4-|-----2---2---|-----0---0---|
D|---2-------2-|-4-----------|---2-------2-|---2-------2-|
A|-------------|-------------|-0-----------|-0-----------|
E|-0-----------|-------------|-------------|-------------|

  D chord diagramDD             D7 chord diagramD7D7            G chord diagramGG             D chord diagramDD
e|-------2-----|-------2-----|-------------|-------2-----|
B|-----3---3---|-----1---1---|-------0-----|-----3---3---|
G|---2-------2-|---2-------2-|-----0---0---|---2-------2-|
D|-0-----------|-0-----------|---0-------0-|-0-----------|
A|-------------|-------------|-------------|-------------|
E|-------------|-------------|-3-----------|-------------|

  D chord diagramDD             A chord diagramAA             D chord diagramDD
e|-------2-----|-------------|-------2-----|-2-----------|
B|-----3---3---|-------2-----|-----3---3---|-3-----------|
G|---2-------2-|-----2---2---|---2-------2-|-2-----------|
D|-0-----------|---2-------2-|-0-----------|-0-----------|
A|-------------|-0-----------|-------------|-------------|
E|-------------|-------------|-------------|-------------|

Almost there ...

Sign in to get your own page with links to favourite songs and more. You are just one click away...

Login with Facebook Login with Google