Log in

One click and you are in

Login with Facebook Login with Google

Why sign up and log in

Guitar Tabs Explorer
Black Marble bass tabs for Private show

Bass tabs

Key: C#m

Standard - EADG:


Intro: - Play X2

G|------------------------------------------------------------------|
D|----------------------------------2-2-2-2-2-2-2-2-2-2-2-2-2-2-2-2-|
A|--2-2-2-2-2-2-2-2-4-4-4-4-4-4-4-4---------------------------------|
E|------------------------------------------------------------------| X2

G|------------------------------------------------------------------|
D|------------------------------------------------------------------|
A|--2-2-2-2-2-2-2-2-4-4-4-4-4-4-4-4---------------------------------|
E|----------------------------------4-4-4-4-4-4-4-4-2-2-2-2-2-2-2-2-|

G|------------------------------------------------------------------|
D|--2-2-2-2-2-2-2-2-2-2-2-2-2-2-2-2-2-2-2-2-2-2-2-2-4-4-4-4-4-4-4-4-|
A|------------------------------------------------------------------|
E|------------------------------------------------------------------|


Verse 1:

G|------------------------------------------------------------------|
D|----------------------------------2-2-2-2-2-2-2-2-2-2-2-2-2-2-2-2-|
A|--2-2-2-2-2-2-2-2-4-4-4-4-4-4-4-4---------------------------------|
E|------------------------------------------------------------------| X2

G|------------------------------------------------------------------|
D|------------------------------------------------------------------|
A|--2-2-2-2-2-2-2-2-4-4-4-4-4-4-4-4---------------------------------|
E|----------------------------------4-4-4-4-4-4-4-4-2-2-2-2-2-2-2-2-|

G|------------------------------------------------------------------|
D|--2-2-2-2-2-2-2-2-2-2-2-2-2-2-2-2-2-2-2-2-2-2-2-2-4-4-4-4-4-4-4-4-|
A|------------------------------------------------------------------|
E|------------------------------------------------------------------|

Verse 2:

G|------------------------------------------------------------------|
D|----------------------------------2-2-2-2-2-2-2-2-2-2-2-2-2-2-2-2-|
A|--2-2-2-2-2-2-2-2-4-4-4-4-4-4-4-4---------------------------------|
E|------------------------------------------------------------------| X2

G|------------------------------------------------------------------|
D|------------------------------------------------------------------|
A|--2-2-2-2-2-2-2-2-4-4-4-4-4-4-4-4---------------------------------|
E|----------------------------------4-4-4-4-4-4-4-4-2-2-2-2-2-2-2-2-|

G|------------------------------------------------------------------|
D|--2-2-2-2-2-2-2-2-2-2-2-2-2-2-2-2-2-2-2-2-2-2-2-2-4-4-4-4-4-4-4-4-|
A|------------------------------------------------------------------|
E|------------------------------------------------------------------|


Chorus:

G|----------------------------------------------------------4-4-4-4-|
D|--2-2-2-2-2-2-2-2-2-2-2-2-2-2-2-2-2-2-2-2-2-2-2-2-4-4-4-4---------|
A|------------------------------------------------------------------|
E|------------------------------------------------------------------| X4


Verse 3:

G|------------------------------------------------------------------|
D|----------------------------------2-2-2-2-2-2-2-2-2-2-2-2-2-2-2-2-|
A|--2-2-2-2-2-2-2-2-4-4-4-4-4-4-4-4---------------------------------|
E|------------------------------------------------------------------| X2

G|------------------------------------------------------------------|
D|------------------------------------------------------------------|
A|--2-2-2-2-2-2-2-2-4-4-4-4-4-4-4-4---------------------------------|
E|----------------------------------4-4-4-4-4-4-4-4-2-2-2-2-2-2-2-2-|


G|------------------------------------------------------------------|
D|--2-2-2-2-2-2-2-2-2-2-2-2-2-2-2-2-2-2-2-2-2-2-2-2-4-4-4-4-4-4-4-4-|
A|------------------------------------------------------------------|
E|------------------------------------------------------------------|


Verse 4:

G|------------------------------------------------------------------|
D|----------------------------------2-2-2-2-2-2-2-2-2-2-2-2-2-2-2-2-|
A|--2-2-2-2-2-2-2-2-4-4-4-4-4-4-4-4---------------------------------|
E|------------------------------------------------------------------| X2

G|------------------------------------------------------------------|
D|------------------------------------------------------------------|
A|--2-2-2-2-2-2-2-2-4-4-4-4-4-4-4-4---------------------------------|
E|----------------------------------4-4-4-4-4-4-4-4-2-2-2-2-2-2-2-2-|


G|------------------------------------------------------------------|
D|--2-2-2-2-2-2-2-2-2-2-2-2-2-2-2-2-2-2-2-2-2-2-2-2-4-4-4-4-4-4-4-4-|
A|------------------------------------------------------------------|
E|------------------------------------------------------------------|


Chorus:

G|----------------------------------------------------------4-4-4-4-|
D|--2-2-2-2-2-2-2-2-2-2-2-2-2-2-2-2-2-2-2-2-2-2-2-2-4-4-4-4---------|
A|------------------------------------------------------------------|
E|------------------------------------------------------------------| X4


Bridge:

G|--------4-4-4-4-4-------4-4-4-4-4-------1-1-1-1-1-------1-1-1-1-1-|
D|--4-4-4-----------4-4-4-----------1-1-1------------1-1-1----------|
A|------------------------------------------------------------------|
E|------------------------------------------------------------------| X3

G|----------------------------------------------------------------------------------|
D|--2-2-2-2-2-2-2-2-2-2-2-2-2-2-2-2-2-2-2-2-2-2-2-2-4-4-4-4-4-4-4-4-4-4-4-4-4-4-4-4-|
A|----------------------------------------------------------------------------------|
E|----------------------------------------------------------------------------------| X3

G|---------------|
D|---------------|
A|--2~~----------|
E|---------------|


Outro:

G|-------------------------------------------------------------------------------|
D|-------------------------------------------------------------------------------|
A|--2~----4~----7~----9--7--4--4-7-7-7-7-7-7-9-9-9-9-9-9-7-7-7-7-7-7-9-9-9-9-9-9-|
E|-------------------------------------------------------------------------------|

G|----------------------------------------------------------------|
D|----------------------------------------------------------------|
A|-9--7--14-14-14-13-13-13-11-11-11-9-9-9-7-7-7-7-7-7-9-9-9-9-9-9-|
E|----------------------------------------------------------------|

G|-----------------------------------------------------|
D|-----------------------------------------------------|
A|--7-7-7-7-7-7-9-9-9-9-9-9-7-7-7-7-7-7-9-9-9-9-9-7-2--|
E|-----------------------------------------------------|


☠☠☠☠☠☠☠☠☠☠☠☠☠☠☠☠☠☠☠☠☠☠☠☠☠☠☠☠☠☠☠☠☠☠☠☠

| ~ Vibrato

☠☠☠☠☠☠☠☠☠☠☠☠☠☠☠☠☠☠☠☠☠☠☠☠☠☠☠☠☠☠☠☠☠☠☠☠

Almost there ...

Sign in to get your own page with links to favourite songs and more. You are just one click away...

Login with Facebook Login with Google