Search tabs and chords

Search for song, artist or band

Log in

One click and you are in

Login with Facebook Login with Google

Why sign up and log in

Guitar Tabs Explorer
The Black Knights guitar tabs for Sword in stone

Guitar tabs

Lick 1 0:31
e|---------------|------------------|----------------|--------------|
B|---------------|---------------12-|----------------|--------------|
G|------9---9-12-|------12----12----|-------------11-|------7---7-9-|
D|----9---9------|----9----12-------|---9-12-9-12----|--------9-----|
A|---------------|-10---------------|-9--------------|-7-10---------|
E|-12------------|------------------|----------------|--------------|

e|---------------|-----------------|----------------|---------------|
B|---------------|-----------------|----------------|---------------|
G|------9---9-12-|--------------12-|-------------11-|------7---9----|
D|----9---9------|----9-12-9-12----|---9-12-9-12----|--------9------| x10
A|---------------|-10--------------|-9--------------|-7-10----------|
E|-12------------|-----------------|----------------|---------------|

Lick 2 3:01
e|------------------------|-------------------------|
B|-17----15----12----10---|-17----15----12----10-12-|
G|----16----14----12----9-|----16----14----12-------|
D|------------------------|-------------------------|
A|------------------------|-------------------------|
E|------------------------|-------------------------|

e|-17----15----12-------10-|-15----12----10-------10-|
B|----17----15----10-12----|----15----12----10-12----|
G|-------------------------|-------------------------|
D|-------------------------|-------------------------|
A|-------------------------|-------------------------|
E|-------------------------|-------------------------|

e|-15----12----10----------|-------------------------|
B|----12----12----10-12----|-17----15----12----10-12-|
G|----------------------12-|----15----14----12-------|
D|-------------------------|-------------------------|
A|-------------------------|-------------------------|
E|-------------------------|-------------------------|

e|-17----15----12-------10-|-15----12----10---------|
B|----17----15----10-12----|----15----12-------10---|
G|-------------------------|----------------12----9-|
D|-------------------------|------------------------| x2
A|-------------------------|------------------------|
E|-------------------------|------------------------|

Almost there ...

Sign in to get your own page with links to favourite songs and more. You are just one click away...

Login with Facebook Login with Google