Log in

One click and you are in

Login with Facebook Login with Google

Why sign up and log in

Guitar Tabs Explorer
The Black Keys bass tabs for Nova baby

Bass tabs

Tuning: Standard (E A D G)


Intro:

G|---------------------------------------------------------------------------|
D|-5-5-5-5-5-5-5-4-2-2-2-2-2-2-2-4-------------------------------------------|
A|---------------------------------------------------------------------------|
E|---------------------------------------------------------------------------| x3

G|---------------------------------------------------------------------------|
D|---------------------------------------------------------------------------|
A|-2--2--2--2-3-3-3~-3-3-2-2-2-2-3~------------------------------------------|
E|---------------------------------------------------------------------------|


Verse 1:

G|---------------------------------------------------------------------------|
D|-------------------------------------------------7-9-9-9-9-9-9-7-9-7-------|
A|-7-7-7-7-7-7-7-5-2-2-2-2-2-2-5-7-5-7-7-7-7-7-7-7---------------------------|
E|---------------------------------------------------------------------------|

G|---------------------------------------------------------------------------|
D|---------------------------------------------------------------------------|
A|-7-7-7-7-7-7-7-5-2-2-2-2-2-2-2-2-------------------------------------------|
E|---------------------------------5--5--5--5--5--5--5-----------------------| x2


Chorus:

G|---------------------------------------------------------------------------|
D|-5-5-5-5-5-5-5-4-2-2-2-2-2-2-2-4-------------------------------------------|
A|---------------------------------------------------------------------------|
E|---------------------------------------------------------------------------| x3

G|---------------------------------------------------------------------------|
D|---------------------------------------------------------------------------|
A|-2--2--2--2-3-3-3~-3-3-2-2-2-2-3~------------------------------------------|
E|---------------------------------------------------------------------------|
repeat this once


Verse:

G|---------------------------------------------------------------------------|
D|-------------------------------------------------7-9-9-9-9-9-9-7-9-7-------|
A|-7-7-7-7-7-7-7-5-2-2-2-2-2-2-5-7-5-7-7-7-7-7-7-7---------------------------|
E|---------------------------------------------------------------------------|

G|---------------------------------------------------------------------------|
D|---------------------------------------------------------------------------|
A|-7-7-7-7-7-7-7-5-2-2-2-2-2-2-2-2-------------------------------------------|
E|---------------------------------5--5--5--5--5--5--5-----------------------| x2


Chorus & solo:

G|---------------------------------------------------------------------------|
D|-5-5-5-5-5-5-5-4-2-2-2-2-2-2-2-4-------------------------------------------|
A|---------------------------------------------------------------------------|
E|---------------------------------------------------------------------------| x3

G|---------------------------------------------------------------------------|
D|---------------------------------------------------------------------------|
A|-2--2--2--2-3-3-3~-3-3-2-2-2-2-3~------------------------------------------|
E|---------------------------------------------------------------------------|
play until end

Almost there ...

Sign in to get your own page with links to favourite songs and more. You are just one click away...

Login with Facebook Login with Google