Search tabs and chords

Search for song, artist or band

Log in

One click and you are in

Login with Facebook Login with Google

Why sign up and log in

Guitar Tabs Explorer
Black Hawk guitar tabs for War

Guitar tabs

Tuning: 1/2 down
 Intro
A|-12-12-12-12-12-12-12-12-12-12-12-9-9-9-9-9-9-9-9-9-7-7-7-7-7-7-7-7-7-5-5-5-5-5-5-5-5-5-3-3-3-3-3-3-3-3-3-3-3-3-3-3-3-3-3-3-3-3-3-3-3-3-3-3-3-3-3-3-3-3-3-3-3|
E|-10-10-10-10-10-10-10-10-10 10-10-7-7-7-7-7-7-7-7-7-5-5-5-5-5-5-5-5-5-3-3-3-3-3-3-3-3-3-1-1-1-1-1-1-1-1-1-1-1-1-1-1-1-1-1-1-1-1-1-1-1-1-1-1-1-1-1-1-1-1-1-1-1|
Verse repeat if nececery
e|---------------------------------------------------------------------------|
B|---------------------------------------------------------------------------|
G|---------------------------------------------------------------------------|
D|---------------------------------------------------------------------------|
A|9-9-12-12-8-10-8-9-9-12-12-8-10-8-9-9-12-12-8-10-8-------------------------|
E|7-7-10-10-6-7-6--7-7-10-10-6-7-6-7-7-10-10-6-7-6---------------------------|

Chorus:

e|---------------------------------------------------------------------------|
B|---------------------------------------------------------------------------|
G|---------------------------------------------------------------------------|
D|---------------------------------------------------------------------------|
A|12-12-12-12-13-12-9-9-9-9-10-9-7-7-7-7-9-7-5-5-5-5-6-5-3-3-3-3-3-3-3-3-3-3-3-3-3-3-3---|
E|10-10-10-10-11-10-7-7-7-7-8-7-5-5-5-5-7-5-3-3-3-3-4-3-1-1-1-1-1-1-1-1-1-1-1-1-1-1-1----|

Solo:
Repeat this section twice
e|---------------------------------------------------------------------------|
B|---------------------------------------------------------------------------|
G|2/9 Bend a few times-2/7 Bend a few times-2/5 Bend a few times-2/3 Bend a few times------------------------------------------------------------------------|
D|---------------------------------------------------------------------------|
A|---------------------------------------------------------------------------|
E|---------------------------------------------------------------------------|
up to this point then just play as follows


e|---------------------------------------------------------------------------|
B|------------------------------------------------------------------------------------------14-15-14-15/2------------------------------------------------------|
D|2/9-7 bend a few times-7/12-10 bend a few times-10/14-12 bend a few times-12/17-15 bend a few times-15-------------------------------------------------------------------|
A|---------------------------------------------------------------------------|
E|---------------------------------------------------------------------------|

Almost there ...

Sign in to get your own page with links to favourite songs and more. You are just one click away...

Login with Facebook Login with Google