Log in

One click and you are in

Login with Facebook Login with Google

Why sign up and log in

Guitar Tabs Explorer
Benjamin Biolay guitar tabs for La ballade du mois de juin

La Ballade Du Mois De Juin tab by Benjamin Biolay

Benjamin Biolay guitar tabs for La ballade du mois de juin

Guitar tabs with lyrics

  • Capo on 8th
Tuning: Standard (E A D G B E)


C'est la retranscription de la version jouée en live par Benjamin Biolay plus aigue que l'originale.
Si vous vouliez être dans la tonalité du morceau avec Chiara Mastroianni, il faudrait mettre un capo en 8ème
case...
En 2ème partie, vous avez les paroles avec les accords qu'il faudra arpéger selon les tablatures ci-dessous.

INTRO: et 1ere PARTIE DU REFRAIN

E|------------------3-----------|------------------3-----------|------------------3-----------|
B|-3----------------------------|-1----------------------------|-0----------------------------|
G|----------0-----------0-------|----------0-----------0-------|----------0-----------0-------|
D|------0-----------------------|------0-----------------------|------0-----------------------|
A|------------------------------|------------------------------|------------------------------|
E|-3----------------------------|-3----------------------------|-3----------------------------|


E|---------------------3-----------|------------------3-----------|------------------3-----------|
B|-0---1---------------------------|-3----------------------------|-1----------------------------|
G|-------------0-----------0-------|----------0-----------0-------|----------0-----------0-------|
D|---------0-----------------------|------2-----------------------|------2-----------------------|
A|---------------------------------|-0----------------------------|-0----------------------------|
E|-3-------------------------------|------------------------------|------------------------------|


E|------------------3-----------|---------------------3-----------|-2----------------3-----------|
B|-0----------------------------|-0---1---------------------------|----------1-------------------|
G|----------0-----------0-------|-------------0-----------0-------|------2---------------2-------|
D|------2-----------------------|---------2-----------------------|-0----------------------------|
A|-0----------------------------|-0-------------------------------|------------------------------|
E|------------------------------|---------------------------------|------------------------------|

E|-2----------------3-----------|-2----------------3-----------|-2----------------3-----------|
B|----------1-------------------|----------1-------------------|----------1-------------------|
G|------2---------------2-------|------2---------------2-------|------2---------------2-------|
D|-0----------------------------|-0----------------------------|-0----------------------------|
A|------------------------------|------------------------------|------------------------------|
E|------------------------------|------------------------------|------------------------------|


E|------------------3-----------|------------------3-----------|-0---2---------------3-----------|
B|-0----------------------------|-0----------------------------|---------------------------------|
G|----------0-----------0-------|----------0-----------0-------|-------------2-----------2-------|
D|------0-----------------------|------0-----------------------|-0-------0-----------------------|
A|------------------------------|------------------------------|---------------------------------|
E|-3----------------------------|-3----------------------------|---------------------------------|


E|-2------|
B|--------|
G|--------|
D|-0------|
A|--------|
E|--------|


COUPLET:

E|-3----------------3-----------|-2----------------2-----------|-0----------------0-----------|
B|-3----------------------------|-3--------3-----------3-------|-1----------------------------|
G|----------0-----------0-------|------0-----------------------|----------0-----------0-------|
D|------0-----------------------|-0----------------------------|------2-----------------------|
A|------------------------------|------------------------------|-0----------------------------|
E|-3----------------------------|------------------------------|------------------------------|


E|-3----------------3-----------|-1----------------1-----------|-1----------------1-----------|
B|-1----------------------------|-0--------0-----------0-------|-0--------0-----------0-------|
G|----------0-----------0-------|------1-----------------------|------1-----------------------|
D|------2-----------------------|-0----------------------------|-0----------------------------|
A|-0----------------------------|------------------------------|------------------------------|
E|------------------------------|------------------------------|------------------------------|


E|-0----------------0-----------|-0----------------0-----------|-2----------------2-----------|
B|-1----------------------------|-1----------------------------|----------1-------------------|
G|----------0-----------0-------|----------0-----------0-------|------2---------------2-------|
D|------2-----------------------|------2-----------------------|-0----------------------------|
A|-0----------------------------|-0----------------------------|------------------------------|
E|------------------------------|------------------------------|------------------------------|


E|-2------|
B|-1------|
G|-2------|
D|-0------|
A|--------|
E|--------|


Intro: A chord diagramG MajorG A chord diagramGsus4Gsus4 A chord diagramG MajorG A chord diagramGsus4Gsus4 A chord diagramA7sus4A7sus4 A chord diagramAm7Am7 A7sus2 A chord diagramD7sus4D7sus4 A chord diagramD7D7 A chord diagramG MajorG A chord diagramD MajorD

COUPLET:
A chord diagramG MajorG    A chord diagramD MajorD       A chord diagramAm7Am7           A chord diagramG MajorG  A chord diagramD MajorD     A chord diagramAm7Am7
Si j'avais su, si j'avais pu éviter ça
A chord diagramG MajorG     A chord diagramD MajorD      A chord diagramAm7Am7
N'en jette plus, ne sois pas déçu
A chord diagramG MajorG     A chord diagramD MajorD      A chord diagramAm7Am7
Je n'ai rien vu de cela
A chord diagramG MajorG                A chord diagramGsus4Gsus4        A chord diagramG MajorG
Mes deux mains cachaient ma figure
A chord diagramGsus4Gsus4        A chord diagramA7sus4A7sus4    A chord diagramAm7Am7      A7sus2
Quand j'ai gâché notre proche futur
A chord diagramAm7Am7           A chord diagramD7D7
Quand j'ai foncé vers la mer en voiture
      A chord diagramG MajorG     A chord diagramD MajorD
J'ai foncé


REFRAIN:
A chord diagramG MajorG              A chord diagramGsus4Gsus4       A chord diagramG MajorG
A chord diagramA majorA l'arrière j'avais ma guitare
    A chord diagramGsus4Gsus4      A chord diagramA7sus4A7sus4       A chord diagramAm7Am7        A7sus2
Mon laisser-passer et trois tonnes de bazar
A chord diagramAm7Am7            A chord diagramD7D7
Quand j'ai heurté de plein fouet
                       A chord diagramG MajorG    A chord diagramD MajorD
Les pleins phares, Le fossé

A chord diagramG MajorG   A chord diagramD MajorD        A chord diagramAm7Am7   A chord diagramG MajorG    A chord diagramD MajorD           A chord diagramAm7Am7
Si je me souviens, La balade était bien
A chord diagramG MajorG   A chord diagramD MajorD        A chord diagramAm7Am7   A chord diagramG MajorG       A chord diagramD MajorD            A chord diagramAm7Am7
Si je me souviens, C'était au mois de juin
A chord diagramAm7Am7         A chord diagramDdim7Ddim7                 A chord diagramAm7Am7   A chord diagramD7D7
Au mois de juin, Beau mois de juin

COUPLET:
A chord diagramG MajorG    A chord diagramD MajorD     A chord diagramAm7Am7               A chord diagramG MajorG   A chord diagramD MajorD      A chord diagramAm7Am7
Si j'avais su, Si j'avais pu en rester là
A chord diagramG MajorG   A chord diagramD MajorD      A chord diagramAm7Am7
Ne le dis plus, Ne sois pas déçu
A chord diagramG MajorG    A chord diagramD MajorD        A chord diagramAm7Am7
Je n'ai pas baissé les bras
A chord diagramG MajorG                A chord diagramGsus4Gsus4        A chord diagramG MajorG
Mes deux mains cachaient ma figure
A chord diagramGsus4Gsus4         A chord diagramA7sus4A7sus4  A chord diagramAm7Am7      A7sus2
Quand j'ai gâché notre proche futur
A chord diagramAm7Am7           A chord diagramD7D7
Quand j'ai foncé vers la mer en voiture
    A chord diagramG MajorG    A chord diagramD MajorD
Défoncée


REFRAIN:
A chord diagramG MajorG              A chord diagramGsus4Gsus4       A chord diagramG MajorG
A chord diagramA majorA l'arrière j'avais ma guitare

    A chord diagramGsus4Gsus4      A chord diagramA7sus4A7sus4       A chord diagramAm7Am7        A7sus2
Mon laisser-passer et trois tonnes de cafard
A chord diagramAm7Am7             A chord diagramD7D7
Quand j'ai heurté de plein fouet
                       A chord diagramG MajorG    A chord diagramD MajorD
Les pleins phares, La jetée

A chord diagramG MajorG   A chord diagramD MajorD        A chord diagramAm7Am7   A chord diagramG MajorG    A chord diagramD MajorD           A chord diagramAm7Am7
Si je me souviens, La balade était bien
A chord diagramG MajorG   A chord diagramD MajorD        A chord diagramAm7Am7   A chord diagramG MajorG       A chord diagramD MajorD           A chord diagramAm7Am7
Si je me souviens, C'était au mois de juin
A chord diagramAm7Am7         A chord diagramDdim7Ddim7                 A chord diagramAm7Am7   A chord diagramD7D7
Au mois de juin, Beau mois de juin

↓ Add and view comments below ↓

What do you think about this song and these tabs?

Add your comments, questions, rant or a thumbs up below.

Almost there ...

Sign in to get your own page with links to favourite songs and more. You are just one click away...

Login with Facebook Login with Google