Log in

One click and you are in

Login with Facebook Login with Google

Why sign up and log in

Guitar Tabs Explorer
Billy Talent bass tabs for Saint veronika

Bass tabs

Saint Veronika [Billy Talent]

Tabbed by Skerlnik.


Intro:
G----------|      |--------|
D----------| Play 20x |--7777--|
A--555555--|      |--------|
D----------|      |--------|
Verse:2x
G-----------------------------------------------------|
D-----------------------------------------------------|
A-----------------------------------------------------|
D-0000000000-33-55-777777777-55555555-33333333-7777-8-|


Chorus:2x
G---------------------------------------------------------------------|
D---------------------------------------------------------------------|
A-----------------------------------------------44444444--------------|
D-88888888-777777777-55555555-33333333-77777777----------0000-222-333-|

Post-Chorus: Play Intro 3x

Verse:4x

Chorus:2x


Bridge:3x
G----------------------------------------------------------------|
D---------------------------------------------------5-7-5--------|
A----------------------------------00-7-0-8-0-5-0-7-------8-7-8--|
D-00-7-0-8-0-5-0-7-0-3-0-5-3-2-3---------------------------------|

G-----------------------------------------------------|
D-----------------------------------------------------|
A----7-0-8-0-5-0-7-3----------------------------------|
D-55------------------8-7-5-7---333333-5-3-222222-3-2-|

Post-Bridge:1x
G---------------------------------------------------|
D---------------------------------------------------| Play 2x
A---------------------------------------------------|
D-0(ring)---7(ring)---5(ring)-7-5-3-3--5-3-2-2--3-2-|

G---------------------------------------------------|
D---------------------------------------------------| Play 2x
A---------------------------------------------------|
D-0-0-00-0--7-7-77-7--5-5-55-7-5-3-3--5-3-2-2--3-2--|


---Guitar Break (no bass)---

After Break: 1x
G--------------|
D--------------|
A--------------|
D-0000-222-333-|


Chorus:3x


Outro:
G----------|      |--------|
D----------| Play 4x  |--7777--|
A--555555--|      |--------|
D----------|      |--------|

Almost there ...

Sign in to get your own page with links to favourite songs and more. You are just one click away...

Login with Facebook Login with Google