Log in

One click and you are in

Login with Facebook Login with Google

Why sign up and log in

Guitar Tabs Explorer
Billy Cobb bass tabs for The shell shack

Bass tabs

Tuning: Half-Step Down (Eb Ab Db Gb)


Intro:

Gb|-----------------------------------|
Db|-----------------------------------|
Ab|5----7--4/--- 5----7--4/-----------|
Eb|----------2-------------2----------|

Gb|-----------------------------------|
Db|-----------------------------------|
Ab|---55555555--------777777777-------|
Eb|-----------------------------------|

Verse 1:

Gb|-----------------------------------|
Db|-----------------------------------|
Ab|--------------2222222/7777777------|
Eb|555555-2222222---------------------|

Gb|-----------------------------------|
Db|-----------------------------------|
Ab|4444444-------5555555--------------|
Eb|-------2222222-------000000--------|


Chorus:

Gb|-----------------------------------|
Db|-----------------------------------|
Ab|5555555-777777-4444444-------------|
Eb|----------------------2222222------|

Gb|-----------------------------------|
Db|-----------------------------------|
Ab|5-5-5-5-5-5--7-7-7-7-7-7-7---------|
Eb|-----------------------------------|


Solo:

Gb|-----------------------------------|
Db|-----------------------------------|
Ab|--------------2222222/7777777------|
Eb|555555-2222222---------------------|

Gb|-----------------------------------|
Db|-----------------------------------|
Ab|4444444-------5555555--------------|
Eb|-------2222222-------000000--------|


Verse 2:

Gb|-----------------------------------|
Db|-----------------------------------|
Ab|--------------2222222/7777777------|
Eb|555555-2222222---------------------|

Gb|-----------------------------------|
Db|-----------------------------------|
Ab|4444444-------5555555--------------|
Eb|-------2222222-------000000--------|

Gb|-----------------------------------|
Db|-----------------------------------|
Ab|--------------2222222/7777777------|
Eb|555555-2222222---------------------|

Gb|-----------------------------------|
Db|-----------------------------------|
Ab|4444444-------5555555--------------|
Eb|-------2222222-------000000--------|


Chorus:

Gb|-----------------------------------|
Db|-----------------------------------|
Ab|5555555-777777-4444444-------------|
Eb|----------------------2222222------|

Gb|-----------------------------------|
Db|-----------------------------------|
Ab|5-5-5-5-5-5--7-7-7-7-7-7-7---------|
Eb|-----------------------------------|


Second Solo:

Gb|-----------------------------------|
Db|-----------------------------------|
Ab|--------------2222222/7777777------|
Eb|555555-2222222---------------------|

Gb|-----------------------------------|
Db|-----------------------------------|
Ab|4444444-------5555555--------------|
Eb|-------2222222-------000000--------|


Chorus:

Gb|-----------------------------------|
Db|-----------------------------------|
Ab|5----7--4/----5----7--4/-----------|
Eb|----------2-------------2----------|

Gb|-----------------------------------|
Db|-----------------------------------|
Ab|5----7--4/---5555-7777-4444--------|
Eb|----------2----------------2222----|

Gb|-----------------------------------|
Db|-----------------------------------|
Ab|-55555555---777777-777777----------|
Eb|-----------------------------------|


Outro:

Gb|-----------------------------------|
Db|-----------------------------------|
Ab|--------------2222222/7777777------|
Eb|555555-2222222---------------------|

Gb|-----------------------------------|
Db|-----------------------------------|
Ab|4444444-------5555555--------------|
Eb|-------2222222-------000000--------|

Gb|-----------------------------------|
Db|-----------------------------------|
Ab|--------------2222222/7777777------|
Eb|555555-2222222---------------------|

Gb|-----------------------------------|
Db|-----------------------------------|
Ab|4444444-9999999-555555555555-------|
Eb|-----------------------------------|

Gb|-----------------------------------|
Db|-----------------------------------|
Ab|--------------2222222/7777777------|
Eb|555555-2222222---------------------|

Gb|-----------------------------------|
Db|-----------------------------------|
Ab|4-4-----5--------------------------|
Eb|----2-2------0------5--------------|


************************************

| b Bend
| / Slide up

************************************

Almost there ...

Sign in to get your own page with links to favourite songs and more. You are just one click away...

Login with Facebook Login with Google