Log in

One click and you are in

Login with Facebook Login with Google

Why sign up and log in

Guitar Tabs Explorer
Billie Eilish chords for You should see me in a crown ukulele

You Should See Me In A Crown Ukulele chords by Billie Eilish

Billie Eilish chords for You should see me in a crown ukulele

Guitar chords with lyrics

  • Capo on 4th
Tuning: G C E A (G C E A)


***Please Note: This tab follows the vocal melody for easy play-along. I've also included
the chords and lyrics along with the tab so whether you wish to pick the melody or strum along to the song,
you have the option. Hope you like it and if you have any issues, please let me know in the comments or by
private message. Thanks.***
Verse 1:
  Em             Em              G
A|---------------------------|---------------------------|---------------------------|
E|---0---2---3---0---2---3---|---0---2---3---0---2---3---|---3---5---7---3---5---7---|
C|---------------------------|---------------------------|---------------------------|
G|---------------------------|---------------------------|---------------------------|
 Bite my tongue bide my time  Wearing a waring sign  Wait 'til the world is mine

  Em             Em              G
A|---------------------------|---------------------------|---------------------------|
E|---0---2---3---0---2---3---|---0---2---3---0---2---3---|---3---5---7---3---5---7---|
C|---------------------------|---------------------------|---------------------------|
G|---------------------------|---------------------------|---------------------------|
   Visions I  vandalize   Cold in my kingdom size  Fell for these ocean eyes


Chorus:
   Em               Em
A|-------------------------------|-----------------------------------|
E|---0---2---3---2---0-------0---|---0---0---2---3---2---0-------0---|
C|-----------------------2-------|---------------------------2-------|
G|-------------------------------|-----------------------------------|
  You should see me in a crown   I'm gonna run this nothing town

            Am             B7
A|---------------------------|-------------------|-------------------|
E|---0---2---3---2---0---0---|---3---0---3---0---|---0---3---0---3---|
C|---------------------------|-------------------|-------------------|
G|---------------------------|-------------------|-------------------|
  Watch me make 'em bow One   by one by one    One by one by

   Em               Em
A|-------------------------------|-----------------------------------|
E|---0---2---3---2---0-------0---|---0---0---2---3---2---0-------0---|
C|-----------------------2-------|---------------------------2-------|
G|-------------------------------|-----------------------------------|
  You should see me in a crown  Your silence is my favorite sound

            Am             B7
A|---------------------------|-------------------|-------------------|
E|---0---2---3---2---0---0---|---3---0---3---0---|---0---3---0---3---|
C|---------------------------|-------------------|-------------------|
G|---------------------------|-------------------|-------------------|
  Watch me make 'em bow One   by one by one   One by one by (one)

Verse 2 - Melody:
  Em                 Em              G
A|-----------------------------------|---------------------------|--------------------------------|
E|---0---2---3--------0---2---3------|---0---2---3---0---2---3---|---3---5---7---3---5---7---3\0--|
C|-----------------------------------|---------------------------|--------------------------------|
G|-----------------------------------|---------------------------|--------------------------------|
  Count my cards, watch them fall   Blood on a marble wall  I like the way they all scream


  Em             Em              G
A|---------------------------|---------------------------|---------------------------|----------------|
E|---0---2---3---0---2---3---|---0---2---3---0---2---3---|---3---5---7---3---5---7---|---2--3---3\0---|
C|---------------------------|---------------------------|---------------------------|----------------|
G|---------------------------|---------------------------|---------------------------|----------------|
  Tell me which one is worse  Living or dying first  Sleeping inside a hearse  (I don't dream)


Bridge:
   Em                  G
A|---------------------------------|------------------------|
E|---12----------------------------|------------------------|
C|--------11---7---9---7---9---11--|---7---9---7---9---11---|
G|---------------------------------|------------------------|
   You say, "Come over,  baby   I think you're pretty"
   Em                       G
A|---------------------------------------|----------------------------|
E|---10---12-----------------------------|----------------------------|
C|-------------11---7---9---7---9---11---|---7---7---9---7---9---11---|
G|---------------------------------------|----------------------------|
   I'm  okay,  I'm not your baby    If you think I'm pretty


Chorus:
   Em               Em
A|-------------------------------|-----------------------------------|
E|---0---2---3---2---0-------0---|---0---0---2---3---2---0-------0---|
C|-----------------------2-------|---------------------------2-------|
G|-------------------------------|-----------------------------------|
  You should see me in a crown   I'm gonna run this nothing town

             Am             B7
A|---------------------------|-------------------|-------------------|
E|---0---2---3---2---0---0---|---3---0---3---0---|---0---3---0---3---|
C|---------------------------|-------------------|-------------------|
G|---------------------------|-------------------|-------------------|
  Watch me make 'em bow One   by one by one    One by one by

   Em               Em
A|-------------------------------|-----------------------------------|
E|---0---2---3---2---0-------0---|---0---0---2---3---2---0-------0---|
C|-----------------------2-------|---------------------------2-------|
G|-------------------------------|-----------------------------------|
  You should see me in a crown  Your silence is my favorite sound

             Am             B7
A|---------------------------|-------------------|-------------------|
E|---0---2---3---2---0---0---|---3---0---3---0---|---0---3---0---3---|
C|---------------------------|-------------------|-------------------|
G|---------------------------|-------------------|-------------------|
  Watch me make 'em bow One   by one by one   One by one by (one)


Outro:
   Em               Em
A|-------------------------------|-----------------------------------|
E|---0---------------------------|---0---0---2---3---2---0-------0---|
C|---4---------------------------|---------------------------2-------|
G|-------------------------------|-----------------------------------|
  crown              I'm gonna run this nothing town

            Am              B7
A|---------------------------|-------------------|-------------------|
E|---0---2---3---2---0---0---|---3---0---3---0---|---0---3---0---3---|
C|---------------------------|-------------------|-------------------|
G|---------------------------|-------------------|-------------------|
  Watch me make 'em bow One   by one by one    One by one by

   Em               Em
A|-------------------------------|---------------------------|
E|---0---2---3---2---0-------0---|---0---2---3---2---3---2---|
C|-----------------------2-------|---------------------------|
G|-------------------------------|---------------------------|
  You should see me in a crown  (You should see see me)

   Em               Em
A|-----------------------------------|---------------------------|
E|---0---0---2---3---2---0-------0---|---0---2---3---2---3---2---|
C|---------------------------2-------|---------------------------|
G|-----------------------------------|---------------------------|
  Your silence is my favorite sound  (You should see see me)

             Am             B7
A|---------------------------|-------------------|-------------------|
E|---0---2---3---2---0---0---|---3---0---3---0---|---0---3---0---3---|
C|---------------------------|-------------------|-------------------|
G|---------------------------|-------------------|-------------------|
  Watch me make 'em bow One   by one by one   One by one by (one)

Almost there ...

Sign in to get your own page with links to favourite songs and more. You are just one click away...

Login with Facebook Login with Google