Log in

One click and you are in

Login with Facebook Login with Google

Why sign up and log in

Guitar Tabs Explorer
Billie Eilish bass tabs for Xanny

Bass tabs

Tuning: Standard (E A D G)


Verse:

G|---------------------------|
D|---------------------------|
A|----------------2--4-2---5-|
D|-7--7\---2--2-2------------|

G|---------------------------|
D|---------------------------|
A|----------------2--4-2---5-|
D|-7--7\---2--2-2------------|

Chorus:

G|---------------------------|
D|---------------------------|
A|---------------------------|
D|-4--3--2--1--0-------------|


Verse:

G|---------------------------|
D|---------------------------|
A|----------------2--4-2---5-|
D|-7--7\---2--2-2------------|

G|---------------------------|
D|---------------------------|
A|----------------2--4-2---5-|
D|-7--7\---2--2-2------------|


Chorus:

G|---------------------------|
D|---------------------------|
A|---------------------------|
D|-4--3--2--1--0-------------|


Outro:

G|---------------------------|
D|---------------------------|
A|-------------------4-2-----|
D|----7\------2-2------------|


************************************

|   \ - slide down
|
************************************

Other versions of Xanny

Xanny (Ver. 2)Bass tabs

↓ Add and view comments below ↓

What do you think about this song and these tabs?

Add your comments, questions, rant or a thumbs up below.

Almost there ...

Sign in to get your own page with links to favourite songs and more. You are just one click away...

Login with Facebook Login with Google